Oops, an error
Loading. Please wait.

Carrie solo tab

version 2
version 2

Solo

Whole song

by Europe
31,816 views 36 this week
2 commentsread comments
1 2 3 4 5
x 5
add to favorites
×
Save as Personal and add changes to this tab that will be seen only by you. Learn more ›
×
You can save this tab as Personal to edit and correct it or add notes. All changes will be seen only by you. Learn more »
launch autoscroll
font size
0
reset
how to read this tab
guitar tuner
backing track
0:00
0:00
edit
Autoscroll
slow
fast
+/-
esc
set tempo
stop
Carrie Solo
Tabbed by flipmac.

      d
      h        v ~~~~~~~
e|---------17-19--------------------------|
B|-17--20-------------------------17--20--|
G|-x--------------------------------------|
D|-x--------------------------------------|
A|-x--------------------------------------|
E|-x--------------------------------------|

     h  p                          h  p
e|----------------------------------------------|
B|-17-20-17------12-15-12-----13-12-13-12-------|
G|----------------------------------------14-12-|
D|----------------------------------------------|
A|----------------------------------------------|
E|----------------------------------------------|

                           v~~~~     h    v~~    h  p
e|-------15---------------------------------------------------|
B|----------15------------------------------------------------|
G|-14b16--------r14-12----12----------------------------------|
D|---------------------14----------12-14-12----12-14-12-s9----|
A|---------------------------------------------------------10-|
E|------------------------------------------------------------|

         m  m  m  m   v~  v~          h d  p     v~
e|--------------------------------------------------|
B|--------------------------------------------------|
G|--------------------------------------------------|
D|-----------------------------------7-9-12-10-9----|
A|-12----------15-14-12--10----------------------10-|
E|-------12-15--------------------------------------|

       h  p                                  h p
e|---------------------------------------------------------|
B|---------------------------------------17-12-17-12-------|
G|-11-9-11-9-------14-12-11----14b16-----------------14-12-|
D|-----------12-10----------14-----------------------------|
A|---------------------------------------------------------|
E|---------------------------------------------------------|

          v~~           v~              v~~~~~~
e|------------------15-17------17b19-r-17--------|
B|-17b19r17------17------------------------------|
G|-----------------------------------------------|
D|-----------------------------------------------|
A|-----------------------------------------------|
E|-----------------------------------------------|

     h  p          v~~
e|-15-17-15s14----------------------------------------|
B|-------------17-15---slide-down-the-neck------------|
G|----------------------------------------------------|
D|----------------------------------------------------|
A|----------------------------------------------------|
E|----------------------------------------------------|

Any questions and so on send to: flipmac@spray.se


************************************

| w~ - whammy bar
| d  - dip
| p  - pull off
| h  - hammer on
| x  - left hand mute
| m  - palm mute
| v~ - vibrato
| b  - bend
| r  - release bend
| s  - slide

************************************

            
            
Suggest correction
Creating personal tab
Creating personal tab
You can edit any tab online and save it as your Personal.

You can edit, replace or remove any tab part or add personal notes – all changes will be seen only by you.

Personal tabs can be accessed anytime from any device, even offline.
Learn more »
comments
print report bad tab
2 comments total.
0 reply
Ratt n' Roll 205 Jul 03, 2008 10:40 AM

This solo is perfect, thanks so much for tabbing it, I love to play this solo to the song, It's one of my favorite ballads. IT's also a really easy solo with a little practice.

0 reply
davisid15 12 Nov 18, 2017 01:43 AM

A little correction

h p h p
e|------------------------------------------------------|
B|--------------------------------------17-12-17-12-----|
G|--11-9-11-9--------14-12-11----14b16------------------|
D|------------12-10-----------14------------------------|
A|------------------------------------------------------|
E|------------------------------------------------------|

Is easy, just press the 14 fret instead of 12 on D string
Do it in that way and it will sound perfect

Anyways, your tab is pretty accurate

guest
Wanna post a correction for this tab? Suggest correction