Oops, an error
Loading. Please wait.
We have an official The Final Countdown tab made by UG professional guitarists. Check out the tab »
×
by Europe
29,052 views 18 this week
2 commentsread comments
1 2 3 4 5
x 5
add to favorites
×
Save as Personal and add changes to this tab that will be seen only by you. Learn more ›
×
You can save this tab as Personal to edit and correct it or add notes. All changes will be seen only by you. Learn more »
launch autoscroll
font size
0
reset
guitar tuner
backing track
0:00
0:00
edit
Autoscroll
slow
fast
+/-
esc
set tempo
stop
Europe - Final Countdown (bass)

intro
   F#   D  B  E   F#      G# A D C#
E|------------------|   |-----------|
A|------5--2--------|   |------5-4--|
D|-4--2-------2-3-4-|   |-6--7------|
G|------------------|4x |-----------|

Chorus
E|-2-222-222-222-22--------------------------------0-000-000-000-00|
A|-----------------5-555-555-555-552-222-222-222-22----------------|
D|-----------------------------------------------------------------|
G|-----------------------------------------------------------------|2x

Bridge
E|-2-24-4-5-4-2-0------------------------------------------------------|
A|----------------5-555-555-555-554-444-444-444-444-444-444-444-44-----|
D|---------------------------------------------------------------------|
G|---------------------------------------------------------------------|

Verse
E|-222*---------222*-444*-555*-----------------444-222-000--------------------|
A|-----0-222*-0---------------4-555*-777*-000*-------------555*-444*-77-77-7/-|
D|----------------------------------------------------------------------------|
G|----------------------------------------------------------------------------|

Guitar solo
E|----------------333*-2-000*-----------333*-|
A|-222*-000*-555*-------------000*-222*------|
D|-------------------------------------------|
G|-------------------------------------------|2x

interlude
E|-2-----------7\---------|  |-2-24-45-4-2-0-----------|
A|------4-5\---------5-7\-|  |---------------5-5-4---4-|
D|------------------------|  |-------------------------|
G|------------------------|2x|-------------------------|

*repeat several times

intro / chorus / bridge / verse / chorus / verse / chorus / bridge / guitar solo /
interlude / chorus / bridge / chorus / bridge.

Submitted by dION (kantongerecht@hotmail.com)

            
            
Suggest correction
Creating personal tab
Creating personal tab
You can edit any tab online and save it as your Personal.

You can edit, replace or remove any tab part or add personal notes – all changes will be seen only by you.

Personal tabs can be accessed anytime from any device, even offline.
Learn more »
comments
print report bad tab
2 comments total.
0 reply
samsquamch 10 Apr 16, 2009 05:03 AM

Guitar solo
E|----------------333*-2-000*-----------222*-|
A|-222*-000*-555*-------------000*-222*------|
D|-------------------------------------------|
G|-------------------------------------------|

E|----------------333*-2-000*----------------|
A|-222*-000*-555*-------------000*-222*-444*-|
D|-------------------------------------------|
G|-------------------------------------------|2x

the notes you had for the end of each solo section were wrong. They end in F# and C# respectively, not G.

0 reply
jackstrickson 10 Dec 09, 2013 10:38 AM

This is almost the same as it is on Rocksmith, except the intro is a little bit different, instead of the 5 on the A string it's an open D string and instead of the 2 on the A string is a 4 on the G string. and on the interlude it was a 2 on the A string instead of a 7 on the E string

guest
Wanna post a correction for this tab? Suggest correction