Oops, an error
Loading. Please wait.
We have an official The Final Countdown tab made by UG professional guitarists. Check out the tab »
×
by Europe
84,443 views 24 this week
3 commentsread comments
1 2 3 4 5
x 12
add to favorites
×
Save as Personal and add changes to this tab that will be seen only by you. Learn more ›
×
You can save this tab as Personal to edit and correct it or add notes. All changes will be seen only by you. Learn more »
launch autoscroll
font size
0
reset
how to read this tab
guitar tuner
backing track
0:00
0:00
edit
Autoscroll
slow
fast
+/-
esc
set tempo
stop
Author
Difficulty
Unregistered
intermediate
thisz a mean power ballad and is simple as

e|------------|-----------|----2p0h2------|-333-2-0-|----3p2h3--|
B|--3---------|-----------|--3-------0----|---------|--3------0-|
G|--4---------|-----------|--4---------0--|-(0)-----|--2--------|
D|--4---------|-----------|--4---------0--|-(0)-----|--0--------|
A|--2---------|-----------|--2---------x--|---------|-----------|
E|-------//7~~|---//7~~~--|------------3--|---------|-----------|

e|--------------|
B|--2-333-2-0-2-|
G|--2-----------|
D|--2-----------|thats the intro part
A|--0-----------|let chords ring
E|--------------|  

e|------------------|----|---|---|---|   im working on the rest but you can 
B|------------------|----|---|-3-|---|   
G|------------------|--4-|-4-|-2-|-2-|   easily pick it up by listening to 
D|---x\\            |--4-|-5-|-0-|-2-|   the song!
A|---x\\pick scrape |--2-|-5-|---|-0-|
E|---x\\            |----|-3-|---|---|



************************************

| h    Hammer-on
| p    Pull-off
| (n)  Ghost note
| x    Dead note
| /    Slide up
| ~    Vibrato

************************************

            
            
Suggest correction
Creating personal tab
Creating personal tab
You can edit any tab online and save it as your Personal.

You can edit, replace or remove any tab part or add personal notes – all changes will be seen only by you.

Personal tabs can be accessed anytime from any device, even offline.
Learn more »
comments
print report bad tab
3 comments total.
+8 reply
ljking 10 Dec 30, 2012 09:21 AM

this is more easy and sound better for me.

|-9-7-9----10-9-10-9-7--10-9-10---------------------------|
|-------7-----------------------7--12-10-12-10-9-12-10----|
|---------------------------------------------------------|
|---------------------------------------------------------|
|---------------------------------------------------------|
|---------------------------------------------------------|

|----------------9-------------10-9--9-10--9-7-9----|
|-9-10-12--10-12---12-10-9--------------------------|
|--------------------------11-----------------------|
|---------------------------------------------------|
|---------------------------------------------------|
|---------------------------------------------------|

0 reply
luk-snico 10 Dec 21, 2013 12:33 PM

apoyo el comentario anterior! se acerca mucho mas aunque también se podría trasladar todas estas notas situando la primera en el traste numero 14 gracias!!!

0 reply
cdbb27 10 Nov 09, 2015 05:10 PM

didn't like this contribution

guest
Wanna post a correction for this tab? Suggest correction