Oops, an error
Loading. Please wait.

Autumn Leaves tab

version 2
version 2

Whole song

Interactive

1,099 views 12 this week
no commentswrite comment
1 2 3 4 5
3 more votes to show rating
add to favorites
×
Save as Personal and add changes to this tab that will be seen only by you. Learn more ›
×
You can save this tab as Personal to edit and correct it or add notes. All changes will be seen only by you. Learn more »
launch autoscroll
font size
0
reset
how to read this tab
guitar tuner
edit
Autoscroll
slow
fast
+/-
esc
set tempo
stop
The song arrangement is taken from Eva's live Performance footage at "Blues Alley" in 1996. - Enjoy -


Eva Cassidy    „Autumn Leaves“   Std Tuning   Capo 1


      Dm                       G              Am G/B    C           G/B
   E|-------------1p-0-------|----------------------0-|-0----------------------|
I  B|-3-----3-----------3--1-|-0-----------0--1--3----|-------1-----3-------1p0|
N  G|----2----2--------------|-------0----------------|----0-----0--------0----|
T  D|-0-----------0----------|----0-----0-------------|----------------0-------|
R  A|------------------------|----------------0--2----|-3-----------2----------|
O  E|-+-----+-----+-----+----|-3-----+-----3-----+----|-+-----+-----+-----+----|

 Am          G            F7                       E7                       Am7        Bm6
------------------------|-------------1----------|-------------0----------|-------0----------------|
-1-----0h1---0----------|----------1--------1----|----------0--------0----|----1-----1-/3----------|
-------------0-----0----|----------------2-----2-|-------1--------1-----1-|-------0--------0-----0-|
----2--2--2-----0-----0-|-------1----------------|----0-------------------|----2-----2-/4-----4----|
-0-----0----------------|----3-------------------|------------------------|-0----------------------|
-+-----+-----3-----+----|-1-----+-----+-----+----|-0-----+-----0-----+----|-+-----+-----+-----+----|

 Am                       Dm7                      G                G/B     Csus2
-------0--------------  |-------------1----------|------------------------|-0----------------------|
------------------- E I |-------1-----1-----1----|-0-----------0h1---3----|------3---------3-----3-|
----5-----5-------- N N |----2-----2-----2-----2-|-------0--------0-----0-|----0-----0-------------|
----5-----5-------- D T |-0-----------0----------|----0-----0-------------|-------------0-----2----|
-0-----------0---//-- R |------------------------|-------------0-----2----|-3----------------------|
-+-----+-----+------- O |-+-----+-----+-----+----|-3-----+-----+-----+----|-+-----+-----+-----+----|
              The falling leaves                                  drift by   my window

 Fmaj7                    Dm7                      E7                       Am        Bm6
------------------------|------------------------|------------------------|------------------------|
-------1-----------1----|-------1-----------1----|------------------------|------------/3----------|
----2-----2-----2-----2-|----2-----2-----2-----2-|----------1-----------1-|-------2--------0-----0-|
-3-----------3----------|-0-----------0----------|-------0-----------0----|----2-----2-/4-----4----|
------------------------|------------------------|----2-----------2-------|-0----------------------|
-+-----+-----+-----+----|-+-----+-----+-----+----|-0-----+-----0-----+----|-+-----+-----+-----+----|
                         The fall...ing leaves            of                red and gold

 Am                       Dm7                      G                        Csus2
-------0----------------|-------------1----------|------------------------|-0----------------------|
-------------0--------0-|-------1----------------|-0-----------1-----3----|-------3-----3-----3----|
----5-----5-----5-------|----2-----2-----2--2----|-------0--------0-----0-|----0-----0-----0-----0-|
----5--------------5----|-0-----------0--------0-|----0-----0-------------|-------------0-----2----|
-0----------------------|-------------------0----|-------------0-----2----|-3----------------------|
-+-----+-----+-----+----|-+-----+-----+-----+----|-3-----+-----+-----+----|-+-----+-----+-----+----|
               I see your lips                                  the summer kisses

 Fmaj7                    Dm7                      E7                       Am         Bm6
------------------------|-------------1----------|------------------------|------------------------|
-0-----1-----------1----|-------1-----------1----|------------------------|------------/3----------|
----2-----2-----2-----2-|----2-----2-----2-----2-|----------1-------------|-------2--------0-----0-|
-3-----------3----------|-0-----------0----------|-------0--------0-------|----2-----2-/4-----4----|
------------------------|------------------------|----2--------2--------2-|-0----------------------|
-+-----+-----+-----+----|-+-----+-----+-----+----|-0-----+-----+-----0----|-+-----+-----+-----+----|
                  the     sun - burned hands          I..-..I                  used to hold

 Am          Am9          Esus                     E7          D/F#         Am         Bm6
-------0----------------|-------------0----------|------------------------|------------------------|
----1-----1--0----------|----------0--------0----|-------0----------------|------------/3----------|
-------2--------2-----2-|-------2-----------2----|-1-----------2----/4----|-------2--------0-----0-|
-------------------2----|----------------2-----2-|----0-----0-----0-----0-|----2-----2-/4-----4----|
-0-----------0----------|----2-------------------|------------------------|-0----------------------|
-+-----+-----+-----+----|-0-----+-----+-----+----|-0-----0-----2----/4----|-+-----+-----+-----+----|
                Since      you went away                            the days grow long

 Am7         Am7/9        Dm7                      G                        C
-------0----------------|------------------------|------------------------|-0--------0-------------|
----1-----1--0----------|-------1----------------|-0-----------1-----3----|------1-----------------|
-------0--------0-----0-|----2-----2-----2-------|-------0--------0-----0-|---0------------0-----0-|
----2-----2--------2----|-0-----------0--------0-|----0-----0-------------|-------------0-----2----|
-0-----------0----------|-------------------0----|-------------0-----2----|-3----------------------|
-+-----+-----+-----+----|-+-----+-----+-----+----|-3-----+-----+-----+----|-+-----+-----+-----+----|
                   and... so-on I'll hear                             o...-...ld     winter's song

 Fmaj7                    Dm7                      E7                       Am         Am/G
------------------------|-------------1----------|------------------------|------------------------|
-------1----------------|-------1-----------1----|-0----------------------|------------------------|
----2-----2-------------|----2-----2-----2-----2-|----------1-----------1-|-------2-----------2----|
-3-----------3----//----|-0-----------0----------|-------0-----------0----|----2-----2-----2-----2-|
------------------------|------------------------|----2-----------2-------|-0----------------------|
-+-----+-----+-----+----|-+-----+-----+-----+----|-0-----+-----0-----+----|-+-----+-----3-----+----|
                   But I    miss you                       most     of al..-..l                 my

 Am/F#                    F7                       E7                       Am         Bm6
------------------------|------------------------|------------------------|------------------------|
----------1-------------|----------------------1-|----------0-------------|------------/3----------|
-------2-----------2----|----------2--------2----|-------1-----------1----|-------2--------0-----0-|
----2-----------2-----2-|-------1----------------|----------------------0-|----2-----2-/4-----4----|
------------------------|----3-----------3-------|----2-----------2-------|-0----------------------|
-2-----+-----2-----+----|-1-----+-----1-----+----|-0-----+-----0-----+----|-+-----+-----+-----+----|
darling                                  when       autumn leaves         start to fall

 Am7         Am9 Instrumental Dm7                  G                        C
-------0----------------|-------------1----------|------------------------|------------------------|
----1-----1--0----------|-------1-----------1----|-0-----------1-----3----|-1--------1--1-----1----|
-------0--------2-----2-|----2-----2-----2-----2-|-------0--------0-----0-|-------0--------0-----0-|
----2-----2--------2----|-0-----------0----------|----0-----0-------------|----2--------0-----0h2--|
-0-----------0----------|------------------------|-------------0-----2----|-3----------------------|
-+-----+-----+-----+----|-+-----+-----+-----+----|-3-----+-----+-----+----|-+-----+-----+-----+----|

 Fmaj7                    Dm7                      E7                       Am7       Bm6
-------------0----------|-------------1----------|-------------------0----|-------0----------------|
-1-----1-----------1----|-------1-----------1----|-------------0----------|----1-----1-/3----------|
----2-----2-----2-----2-|----2-----2-----2-----2-|----------1-----1-----1-|-------0--------0-----0-|
-3-----------3----------|-0-----------0-----0----|-------0-----0-----0----|----2-----2-/4-----4----|
------------------------|------------------------|----2-------------------|-0----------------------|
-+-----+-----+-----+----|-+-----+-----+-----+----|-0-----+-----+-----+----|-+-----+-----+-----+----|

 Am                       Dm7                      G                        C
-------0----------------|-------1-----1----------|------------------------|-0----------------------|
-------------0--------0-|-------1-----------1----|-0-----------1-----3----|-------1-----1-----1----|
----5-----5-----5-------|----2-----2-----2-----2-|-------0--------0-----0-|----0-----0-----0-----0-|
----5--------------5----|-0-----------0----------|----0-----0-------------|-------------0-----2----|
-0----------------------|------------------------|-------------0-----2----|-3----------------------|
-+-----+-----+-----+----|-+-----+-----+-----+----|-3-----+-----+-----+----|-+-----+-----+-----+----|

 Fmaj7                    Dm7                      E7                       Am7      Bm6  End Instr.
------------------------|-------1-----1----------|-------------------0----|-------0----------------|
-1-----1-----------1----|-------1-----------1----|-------------0----------|----1-----1-/3----------|
----2-----2-----2-----2-|----2-----2-----2-----2-|----------1-----1-----1-|-------0--------0-----0-|
-3-----------3----------|-0-----------0----------|-------0----------------|----2-----2-/4-----4----|
------------------------|------------------------|----2-------------------|-0----------------------|
-+-----+-----+-----+----|-+-----+-----+-----+----|-0-----+-----+-----+----|-+-----+-----+-----+----|

 Am7         Am9          Esus                     E7         D/F#          Am7       Bm6
-------0----------------|-------------0----------|------------------------|-------0----------------|
----1-----1--0----------|----------0--------0----|-------0----------------|----1-----1-/3----------|
-------0--------2----2--|-------2-----------2----|-1-----------2----/4----|-------0--------0-----0-|
----2-----2--------2----|----------------2-----2-|----0-----0-----0-----0-|----2-----2-/4-----4----|
-0-----------0----------|----2-------------------|------------------------|-0----------------------|
-+-----+-----+-----+----|-0-----+-----+-----+----|-0-----0-----2----/4----|-+-----+-----+-----+----|
                  Since         you went away                    the days gro.-.w  long

 Am7        Am            Dm7                      G                        C
-------0--------------0-|------------------------|------------------------|-0--------0-------------|
----1-----1--1-----1----|-------1-----------1----|-0-----------1-----3----|-------1----------------|
-------0--------2-------|----2-----2-----2-----2-|-------0--------0-----0-|----0-----------0-----0-|
----2-----2-------------|-0-----------0----------|----0-----0-------------|-------------0-----0h2--|
-0-----------0----------|------------------------|-------------0-----2----|-3-----------3-----3----|
-+-----+-----+-----+----|-+-----+-----+-----+----|-3-----+-----+-----+----|-+-----+-----+-----+----|
                    and...   soon I'll hear                           o..-..ld       winter's song
 
 Fmaj7                    Dm7                      E7                       Am          Am/G
------------^0----------|-1-----------1----------|------------------------|------------------------|
-------1----^1----------|-------1-----------1----|------------------------|----------1-------------|
----2-----2-^2----------|----2-----2-----2-----2-|----------1-----------1-|-------2-----------2----|
-3----------^3---//-----|-0-----------0----------|-------0-----------0----|----2-----------2-----2-|
------------------------|------------------------|----2-----------2-------|-0----------------------|
-+-----+-----+-----+----|-+-----+-----+-----+----|-0-----+-----0-----+----|-+-----+-----3-----+----|
                   But I  miss you                           most    of al..-..l                my

 Am/F#                    F7                       E7                       Am         Bm6
------------------------|------------------------|------------------------|------------------------|
----------1-------------|------------------------|------------------------|------------/3----------|
-------2-----------2----|----------2-----------2-|----------1-----------1-|-------2--------0-----0-|
----2-----------2-----2-|-------1-----------1----|-------0-----------0----|----2-----2-/4-----4----|
------------------------|----3-----------3-------|----2-----------2-------|-0----------------------|
-2-----+-----2-----+----|-1-----+-----1-----+----|-0-----+-----0-----+----|-+-----+-----+-----+----|
 darling                               when autumn leaves          start to fall

 Am7         Am9          Dm7                      E7         D/F#   E      Am          Am/G
-------0----------------|-------------1-----1----|------------------------|------------------------|
----1-----1--0----------|-------1-----------1----|------------------------|-------1-----------1----|
-------0--------2-----2-|----2-----2-----2-----2-|-------1-----2----/4----|-------2-----------2----|
----2-----2--------2----|-0-----------0----------|----0-----0-----0-----0-|----2-----2-----2-----2-|
-0-----------0----------|------------------------|----2-------------------|-0----------------------|
-+-----+-----+-----+----|-+-----+-----+-----+----|-0-----+-----2----/4----|-+-----+-----3-----+----|
                   I..-..miss you              most    of all                                  m.-.y

 Am/F#                    F7                       E7                       Am         Bm6
-------0-----------0----|------------------------|-------------0----------|------------------------|
-1-----1-----1-----1----|-1--------1-------------|------------------------|-1----------/3----------|
------------------------|-------------2----------|----------1-------------|-------2--------0-----0-|
----2-----2-----2-----2-|-------1----------//----|-------0----------//----|----2-----2-/4-----4----|
------------------------|----3-------------------|----2-------------------|-0----------------------|
-2-----+-----2-----+----|-1-----+-----+-----+----|-0-----+-----+-----+----|-+-----+-----+-----+----|
 da.-.rl..-..-..-..-..ing            when autumn leaves       start to fa..-..ll

 Am        Am9/Am
-------0----^0----------||
----1-----1-^0h1--------||
-------2----^2----------||
----2-----2-^2---//-----||
-0----------^0----------||
-+-----+-----+-----+----||


Verse 1:
The falling leaves
drift by my window
the falling leaves
of red and gold

Verse 2:
I see your lips
the summer kisses
the sun-burned hands
I used to hold

Chorus (repeat twice):
Since you went away
the days grow long
and soon I’ll hear
old winter’s song
But I miss you
most of all, my darling,
when autumn leaves
start to fall

            
            
Suggest correction
Creating personal tab
Creating personal tab
You can edit any tab online and save it as your Personal.

You can edit, replace or remove any tab part or add personal notes – all changes will be seen only by you.

Personal tabs can be accessed anytime from any device, even offline.
Learn more »
Give kudos to tab author, rate the tab!
1 2 3 4 5
comments
print report bad tab
guest
You may want to rate the tab now too:
select rating
Wanna post a correction for this tab? Suggest correction