Oops, an error
Loading. Please wait.
We have Chord Pro version of Fields Of Gold.
It's the closest thing you can get to the original song and it has interactive parts. Check out the tab »
×
194,746 views 237 this week
9 commentsread comments
1 2 3 4 5
x 64
add to favorites
×
Save as Personal and add changes to this tab that will be seen only by you. Learn more ›
×
You can save this tab as Personal to edit and correct it or add notes. All changes will be seen only by you. Learn more »
launch autoscroll
font size
0
reset
how to read this tab
guitar tuner
edit
Autoscroll
slow
fast
+/-
esc
set tempo
stop
NOTE:  This is played with a capo on the 7th fret.

[INTRO]

 Bm               Bm               G                G
 Oooo
e|----------------|----------------|----------------|----------------|
B|-3--------------|-3--------------|-0-----------0--|-------------0--|
G|---------4------|---------4------|---------2------|---------2------|
D|-----4-------4--|-----4-------4--|-----0----------|-----0----------|
A|-2--------------|-0--------------|----------------|----------------|
E|----------------|----------------|-3--------------|-3--------------|

 D                D                D                D
e|----------------|-2h3------------|-2--------------|-2--------------|
B|---------3------|-----3-------3--|---------3------|----------------|
G|-----2-------2--|---------2------|-----2-------2--|----------------|
D|-0--------------|----------------|-0--------------|-0--------------|
A|----------------|----------------|----------------|----------------|
E|----------------|----------------|----------------|----------------|


[VERSE 1]

 Bm               Bm               G                G
 You'll remember me...
e|----------------|----------------|----------------|----------------|
B|-3--------------|-3-------3------|-0-----------0--|----------------|
G|---------4------|----------------|---------2------|---------0---0h2|
D|-----4-------4--|-----4-------4--|-----0----------|-----0----------|
A|-2--------------|-2-------0------|----------------|----------------|
E|----------------|----------------|-3--------------|-3--------------|

 G                A                D                D
 among...                                           You can
e|----------------|----------------|----------------|-2--------------|
B|-0-----------0--|-------------2--|---------3------|----------------|
G|---------2------|---------2------|-----2-------2--|-----2------(2)-|
D|-----0----------|-----2----------|-0--------------|-0--------------|
A|----------------|-0--------------|----------------|---------4------|
E|-3--------------|----------------|----------------|----------------|

 Bm               Bm               G                D/F#
 tell...                                            when we
e|----------------|----------------|----------------|----------------|
B|-3--------------|-3-------3------|-0--------------|-3--------------|
G|---------4------|----------------|---------2------|---------2------|
D|-----4-------4--|-----4-------4--|-----0-------0--|-----0-------0--|
A|-2--------------|-2-------0------|----------------|----------------|
E|----------------|----------------|-3--------------|-2--------------|

 walked...
 Em               A                D                D
e|----------------|----------------|----------------|-2--------------|
B|-0-----------0--|-------------2--|---------3------|----------------|
G|---------0------|---------2------|-----2-------2--|----------------|
D|-----0----------|-----2----------|-0--------------|-0--------------|
A|----------------|-0--------------|----------------|----------------|
E|-0--------------|----------------|----------------|----------------|


[VERSE 2] (same tab as verse 1)

Bm            Bm    G    G
So she took...
G          A     D    D
Among the fields...
       Bm    Bm   G   D/F#
In his arms...
Em          A     D    D
among the fields...


[VERSE 3] (same tab as verse 1 except last four bars)

Bm       Bm     G     G
Will you stay...
G           A     D   D
Among the fields....  You can
Bm         Bm   G    D/F#
tell the sun...      when we

 Em               A                D                D        D/F#
 walked...
e|----------------|----------------|---------2h3----|-2-------0------|
B|-0-----------3--|-------------2--|-------------3--|----------------|
G|---------0------|---------2------|-----2----------|-----2-------2--|
D|-----0----------|-----2----------|-0--------------|-0--------------|
A|----------------|-0--------------|----------------|----------------|
E|-0--------------|----------------|----------------|---------2------|


[CHORUS]

 G                G                A                D        D/F#
         I      never...
e|----------------|----------------|----------------|----------------|
B|-3-----------3--|----------------|-------------2--|---------3------|
G|---------2------|---------2------|---------2------|-----2----------|
D|-----0----------|-----0-------0--|-----2----------|-0-----------0--|
A|----------------|----------------|-0--------------|----------------|
E|-3--------------|-3--------------|----------------|---------2------|

 G                G                A                D        D/F#
          And    there have...
e|----------------|----------------|----------------|----------------|
B|-3-----------3--|----------------|-------------2--|---------3------|
G|---------2------|---------2------|---------2------|-----2----------|
D|-----0----------|-----0-------0--|-----2----------|-0-----------0--|
A|----------------|----------------|-0--------------|----------------|
E|-3--------------|-3--------------|----------------|---------2------|

 G                G                A                Bm
       but   I   swear...
e|----------------|----------------|----------------|----------------|
B|-3-----------3--|-------------3--|-------------2--|-3-------3------|
G|---------2------|---------2------|---------2------|----------------|
D|-----0----------|-----0----------|-----2----------|-----4-------4--|
A|----------------|----------------|-0--------------|-2-------0------|
E|-3--------------|-3--------------|----------------|----------------|

 G                A                Bm               Bm
 We'll walk...
e|----------------|----------------|----------------|----------------|
B|-0-----------0--|-------------2--|-3--------------|-3--------------|
G|---------2------|---------2------|---------4------|---------4------|
D|-----0----------|-----2----------|-----4-------4--|-----4-------4--|
A|----------------|-0--------------|-2--------------|-0--------------|
E|-3--------------|----------------|----------------|----------------|

 G                A                D                D        D/F#
 we'll walk...
e|----------------|----------------|----------------|-2--------------|
B|-0-----------0--|-------------2--|-3-------3------|----------------|
G|---------2------|---------2------|-----2-------2--|-----2------(2)-|
D|-----0----------|-----2----------|-0--------------|-0--------------|
A|----------------|-0--------------|----------------|---------4------|
E|-3--------------|----------------|----------------|----------------|



[SOLO]

Acoustic gutiar play same tab as for verse 1.  Electric guitar (no capo)
play the following:

 G                A                D                D        D/F#
 we'll walk...
e|----------------|----------------|----------------|---------4h5-4--|
B|----------------|----------------|----------------|----------------|
G|----------------|----------------|----------------|----------------|
D|----------------|----------------|----------------|----------------|
A|----------------|----------------|----------------|----------------|
E|----------------|----------------|----------------|----------------|

 Bm               Bm               G                G
e|----------------|----------4h5-4-|----------------|----------------|
B|-7-----5------5-|----------------|-7---5------5/7-|----------------|
G|----------------|----------------|----------------|----------------|
D|-7-----6------4-|----------------|----------------|----------------|
A|----------------|----------------|----------------|----------------|
E|----------------|----------------|----------------|----------------|

 G                A                D                D
e|-------------5--|(5)-------------|----------------|----------4/5-4-|
B|---------7------|-5/7-5-------7--|-5--------------|----------------|
G|----------------|---------7---7--|-6--------------|----------4/6-4-|
D|----------------|----------------|----------------|----------------|
A|----------------|----------------|----------------|----------------|
E|----------------|----------------|----------------|----------------|

 Bm               Bm               G                D/F#
e|----------------|----------------|----------------|----------------|
B|-7---5-------5--|-----------7h9--|-10------5------|----------------|
G|-----6-------6--|----------------|-----7----------|----------------|
D|-7--------------|----------------|----------------|-------------7--|
A|----------------|----------------|----------------|----------------|
E|----------------|----------------|----------------|----------------|

 Em               A                D                D
e|----------------|----------------|----------------|--------9----7--|
B|-5-------5---5--|-5-\3----3---3--|-----2---2------|--------10---9--|
G|-6h7-----6---6--|-6-\4----4---4--|-----2---2------|----------------|
D|----------------|----------------|----------------|----------------|
A|----------------|----------------|----------------|----------------|
E|----------------|----------------|----------------|----------------|

 Bm               Bm               G                G
e|----------------|-------------4--|-5------5/10----|-10------10-----|
B|-10--9-----7----|---------7------|----------------|----------------|
G|----------------|----------------|----------------|----------------|
D|-11--9-----7----|----------------|----------------|----------------|
A|----------------|----------------|----------------|----------------|
E|----------------|----------------|----------------|----------------|

 G                A                D                D
e|--------14--16--|-17------16-----|-12-------------|--------9----7--|
B|----------------|----------------|----------------|--------10---9--|
G|----------------|----------------|----------------|----------------|
D|----------------|----------------|----------------|----------------|
A|----------------|----------------|----------------|----------------|
E|----------------|----------------|----------------|----------------|

 Bm               Bm               G                D/F#
e|5------7-----9--|--------9-10-12-|-12-------------|----------------|
B|7------9-----10-|----------------|--------10---10-|------------10--|
G|----------------|----------------|----------------|----------------|
D|----------------|----------------|----------------|----------------|
A|----------------|----------------|----------------|----------------|
E|----------------|----------------|----------------|----------------|

 Em               A                D                D
e|-9/10----9---9--|-----7---7---7--|-----5-------5--|-17-----12------|
B|----------------|----------------|----------------|----------------|
G|-9/11----9---9--|-----7---7---7--|-----6-------6--|----------------|
D|----------------|----------------|----------------|----------------|
A|----------------|----------------|----------------|----------------|
E|----------------|----------------|----------------|----------------|


(Repeat chorus - same except for last four bars)

 G                A                Bm               Bm
 We'll walk...
e|----------------|----------------|----------------|----------------|
B|-0-----------0--|-------------2--|-3--------------|-3--------------|
G|---------2------|---------2------|---------4------|---------4------|
D|-----0----------|-----2----------|-----4-------4--|-----4-------4--|
A|----------------|-0--------------|-2--------------|-0--------------|
E|-3--------------|----------------|----------------|----------------|

 G                A                D                D        D/F#
 we'll walk...
e|----------------|----------------|----------------|-2--------------|
B|-0-----------0--|-------------2--|---------3------|----------------|
G|---------2------|---------2------|-----2-------2--|-----2------(2)-|
D|-----0----------|-----2----------|-0--------------|-0--------------|
A|----------------|-0--------------|----------------|---------4------|
E|-3--------------|----------------|----------------|----------------|

 Bm               Bm               G                G
 Oooo
e|----------------|----------------|----------------|----------------|
B|-3--------------|-3--------------|-0-----------0--|-------------0--|
G|---------4------|---------4------|---------2------|---------2------|
D|-----4-------4--|-----4-------4--|-----0----------|-----0----------|
A|-2--------------|-0--------------|----------------|----------------|
E|----------------|----------------|-3--------------|-3--------------|

 D                D                D                D
                                                              Many
e|----------------|-2h3------------|-2--------------|-2--------------|
B|---------3------|-----3-------3--|---------2------|----------------|
G|-----2-------2--|---------2------|-----3-------3--|-----2-------2--|
D|-0--------------|----------------|-0--------------|-0--------------|
A|----------------|----------------|----------------|---------4------|
E|----------------|----------------|----------------|----------------|


[VERSE 4] (same tab as verse 1)

       Bm         Bm           G           G
(Many) years...
G          A        D     D
Upon...
      Bm         Bm         G        D/F#
See the children...
       Em      A         D      D
As you lie...


[VERSE 5] (same tab as verse 1 except last four bars)

       Bm        Bm          G          G
You'll remember...
G           A        D      D
Among...
        Bm       Bm         G       D/F#
You can...

 Em               A                D                D
 When we walked...
e|----------------|----------------|---------2h3----|-2--------------|
B|-0-----------3--|-------------2--|-------------3--|---------3------|
G|---------0------|---------2------|-----2----------|-----2----------|
D|-----0----------|-----2----------|-0--------------|-0-----------0--|
A|----------------|-0--------------|----------------|----------------|
E|-0--------------|----------------|----------------|---------2------|

 G                A                Bm               Bm
 When we walked...
e|----------------|----------------|----------------|----------------|
B|-3-----------3--|-------------2--|-3--------------|-3--------------|
G|---------2------|---------2------|---------4------|---------4------|
D|-----0----------|-----2----------|-----4-------4--|-----4-------4--|
A|----------------|-0--------------|-2--------------|-0--------------|
E|-3--------------|----------------|----------------|----------------|

 G                 A               D                D
 When we walked...
e|----------------|----------------|----------------|-2--------------|
B|-0-----------0--|----------------|---------3------|---------3------|
G|---------2------|----------------|-----2-------2--|-----2-------2--|
D|-----0----------|----------------|-0--------------|-0--------------|
A|----------------|-0--------------|----------------|----------------|
E|-3--------------|----------------|----------------|----------------|

 Bm               Bm               G                G
 Oooo
e|----------------|----------------|----------------|----------------|
B|-3--------------|-3--------------|-0-----------0--|-------------0--|
G|---------4------|---------4------|---------2------|---------2------|
D|-----4-------4--|-----4-------4--|-----0----------|-----0----------|
A|-2--------------|-0--------------|----------------|----------------|
E|----------------|----------------|-3--------------|-3--------------|

 D                D                D                D
e|----------------|-2h3-----0------|----2-----------|----------------|
B|---------3------|-----3----------|---3------------|----------------|
G|-----2-------2--|-------------2--|--2-------------|----------------|
D|-0--------------|----------------|-0--------------|----------------|
A|----------------|----------------|----------------|----------------|
E|----------------|----------------|----------------|----------------|



************************************

| (n)  Ghost note
| h    Hammer-on
| /    Slide up
| \    Slide down

************************************

            
            
Suggest correction
Creating personal tab
Creating personal tab
You can edit any tab online and save it as your Personal.

You can edit, replace or remove any tab part or add personal notes – all changes will be seen only by you.

Personal tabs can be accessed anytime from any device, even offline.
Learn more »
comments
print report bad tab
9 comments total. Showing first comments.
+4 reply
anthonyjennings 10 Jan 01, 2008 11:42 AM

really cool - it was about time someone posted this song, its so much better than Sting's version

+3 reply
puderjunge 165 Apr 03, 2008 02:01 PM

Great tab of a beautiful song interpreted by a beautiful female voice, thank you very much!

+4 reply
SimpleMan3280 50 Oct 01, 2008 07:03 PM

i agree, i dig this version much more than sting's. holds much more meaning to me in her arrangement. great tab, indeed.

guest
Wanna post a correction for this tab? Suggest correction