Oops, an error
Loading. Please wait.

I Wandered By A Brookside tab

4,307 views 6 this week
no commentswrite comment
1 2 3 4 5
2 more votes to show rating
add to favorites
×
Save as Personal and add changes to this tab that will be seen only by you. Learn more ›
×
You can save this tab as Personal to edit and correct it or add notes. All changes will be seen only by you. Learn more »
launch autoscroll
font size
0
reset
how to read this tab
guitar tuner
edit
Autoscroll
slow
fast
+/-
esc
set tempo
stop
Title:  I Wandered By A Brookside
Artist: Eva Cassidy
Tabbed by: Stuart Lowe

Capo on 1st fret

Intro:

|---------------|-0-------------|---------------|---------------|
|----0-2-4------|---------------|-----0-4-------|---------------|
|---------------|-----2h4-------|---------------|-2----2--------|
|-2-------------|---2-----2-----|---4-----------|---4------2----|
|---------------|-0-------------|-2-------------|-2----2h4------|
|---------------|---------------|---------------|---------------|
                                                             I
|---------------|-0-------------|---------------|---------------|
|----0-2-4------|---------------|-------4-------|------4--------|
|---------------|------2--------|-----2---------|-2-------------|
|-2-------------|---2-----2-----|---4-----------|---4-----------|
|---------------|-0-------------|-2-------------|-2----2h4------|
|---------------|---------------|---------------|---------------|

  wandered        by     a        brookside             I
|----0-----0----|----0---0------|--------0------|-----0---------|
|----0-----0----|----0---0------|------0---0----|---0---0-------|
|----4-----4----|------4--------|---------------|---------------|
|-2-------------|---------------|-2-------------|-2-------------|
|---------------|-0-------------|---------------|---------------|
|----------4----|---------------|---------------|---------------|

  wandered        by    a         mill                    I
|-0-------------|-------0-------|---------------|---------------|
|---------------|-----0---------|-------4-------|-----4---------|
|----4---4------|---2-----------|-----4---------|-2-------------|
|-2-------------|---------------|---4-----------|---4-----------|
|---------------|-0-------------|-2-------------|-2---2h4-------|
|------4--------|---------------|---------------|---------------|

  could not       hear  the       water                 The
|-------0---0---|-------0-------|-----0---------|---------------|
|-------0---0---|-----0---------|---0---0-------|---0-----------|
|-------4---4---|---2-----------|---------------|-------2-------|
|-2-------------|---------------|-2-------------|-2---3---------|
|---------------|-0-------------|---------------|---------------|
|---------4-----|---------------|---------------|---------------|

  Murmuring       it  was         still                 Not a
|---------------|---------------|---------------|-0---2---------|
|-----2---------|-----2---------|-----0---------|---------------|
|---2---2-------|---2---2-------|---------------|---2---2-------|
|-4-------------|-3-------------|---4---4-------|-----1---------|
|---------------|---------------|-2-------------|-4-------------|
|---------------|---------------|---------------|---------------|

  sound of        any             grasshopper           Nor the
|-0-------------|-------0-------|--------0------|-----0---------|
|---------------|-----0---------|------0---0----|---0---0-------|
|---4-----4-----|---2-----------|---------------|---------------|
|-2-------------|---------------|-2-------------|-2-------------|
|---------------|-0-------------|---------------|---------------|
|-------4-------|---------------|---------------|---------------|

  chirp of        any             bird                   But the
|-0-------------|-------0-------|---------------|---------------|
|---------------|-----0---------|-------4-------|-----4---------|
|---4-----4-----|---2-----------|-----4---------|-2-------------|
|-2-------------|---------------|---4-----------|---4-----------|
|---------------|-0-------------|-2-------------|-2---2h4-------|
|-------4-------|---------------|---------------|---------------|

  beating         of  my          own             heart  was the
|-----0---------|---------------|---------------|-----0---------|
|---0---0-------|---0---0-------|---------------|---------------|
|---------------|---------------|-----2---------|---------------|
|-2-------------|-----4---------|---2---2-------|---2-----------|
|---------------|-6-------------|-4-------------|-2-------------|
|---------------|---------------|---------------|-----4---------|

  only            sound      I    heard                    The
|-------0-------|---------------|---------------|---------------|
|-2---0---------|-----4---------|-2---0---------|-2---0---------|
|---------------|---4-----------|---------------|---------------|
|---2-----------|---------------|---2---2-------|---2---2-------|
|-0-------------|-2-------------|-0-------------|-0-------------|
|---------------|---------------|---------------|---------------|

  beating         of  my          own             heart  was the
|-----0---------|---------------|---------------|-0-------------|
|---0---0-------|---0---0-------|-------0-------|-----0---------|
|---------------|---------------|-----2---------|---------------|
|-2-------------|-----4---------|---2-----------|---2-----------|
|---------------|-6-------------|-4-------------|---------------|
|---------------|---------------|---------------|-4------4------|

  only            sound I         heard
|---------------|---------------|-----0---------|-0-------------|
|-2---0---------|---------------|---0---0-------|-0-------------|
|---------------|-----4---------|---------------|---------------|
|---2---2-------|---4---4-------|-2-------------|-2-------------|
|-0-------------|-2-------------|---------------|---------------|
|---------------|---------------|---------------|---------------|

  Mmmmmmmmm . . .
|-4-------------|-2-------------|---------------|---------------|
|-----5---------|-5---5---------|-----4---------|---0-----------|
|---4---4-------|---4---4-------|---------------|-------2-------|
|---------------|---------------|---4-----------|-2---3---------|
|---------------|---------------|-2---2h4-------|---------------|
|---------------|-0-------------|---------------|---------------|

|---------------|---------------|---------------|-0-------------|
|-----2---------|-----2---------|---------------|-2---2-2-------|
|---2---2-------|---2---2-------|-----2---------|-2-2---2-------|
|-4-------------|-3-------------|---4---4-------|---------------|
|---------------|---------------|-2-------------|-2-------------|
|---------------|---------------|---------------|---------------|

|-0---0---------|-0---0---------|---------------|---------------|
|---0---0-------|---0---0-------|-4---4---------|---0-----------|
|---------------|---------------|---------------|-------2-------|
|-2-------------|-1-------------|---4-----------|-2---3---------|
|---------------|---------------|-2---2h4-------|---------------|
|---------------|---------------|---------------|---------------|

|---------------|---------------|---------------|---------------|
|-----2---------|-----2---------|-------2-------|-2---0---------|
|---2---2-------|---2---2-------|-----2---------|-4---4---------|
|-4-------------|-3-------------|---4-----------|---4---4-------|
|---------------|---------------|-0-------------|-2-------------|
|---------------|---------------|---------------|---------------|

|---------------|-0-------------|---------------|---------------|
|---------------|-0---0---------|-----4---------|-5---5---------|
|-2---2---------|-----1---------|-5---5---------|---------------|
|---2---2-------|---2---2-------|-4-------------|---6---6-------|
|-0-------------|---------------|---6-----------|-4-------------|
|---------------|-0-------------|-4-------------|-----7---------|

                                                           Then
|-----0-2-------|---------------|---------------|---------------|
|-2—4-----------|-2-------------|-----4h5p4-2---|-4-------------|
|---------------|---------------|---------------|---------------|
|-------1-------|---2---2-------|---4-----------|---4-----------|
|-0-2-4---------|-0---0---------|-2-------------|-2-----4-------|
|---------------|---------------|---------------|---------------|

  silent          tears fast      flowing                  When
|-0---0---------|-0-----0-------|-----0---------|-----0---------|
|---------------|-----0---------|---0---0-------|---0---0-------|
|---4---4-------|---2-----------|---------------|---------------|
|-2-------------|---------------|-2-------------|-2-------------|
|---------------|-0-------------|---------------|---------------|
|-----4---------|---------------|---------------|---------------|

  someone         stood be   -    side                       A
|-0-------------|-------0-------|---------------|---------------|
|---------------|-----0---------|-------4-------|-----4---------|
|---4---4-------|---2-----------|-----4---------|-2-------------|
|-2-------------|---------------|---4-----------|---4-----------|
|---------------|-0-------------|-2-------------|-2---2h4-------|
|-----4---------|---------------|---------------|---------------|

  hand up    -    on         my   shoulder              I
|-0-------------|-0-----0-------|-----0---------|---------------|
|---------------|-----0---------|---0---0-------|---0-----------|
|---4---4-------|---2-----------|---------------|-------2-------|
|-2-------------|---------------|-2-------------|-2---3---------|
|---------------|-0-------------|---------------|---------------|
|-----4---------|---------------|---------------|---------------|

  knew  the       touch was       kind                  He
|---------------|---------------|---------------|-0---2---------|
|-----2---------|-----2---------|-0-------------|---------------|
|---2---2-------|---2---2-------|-2---2---------|---2---2-------|
|-4-------------|-3-------------|---4---4-------|-----1---------|
|---------------|---------------|-2-------------|-4-------------|
|---------------|---------------|---------------|---------------|

  drew  me        near  and       nearer                We
|-0---0---------|-------0-------|-----0---------|-----0---------|
|---------------|-2---0---------|---0---0-------|---0---0-------|
|---4---4-------|-2-2-----------|---------------|---------------|
|-2-------------|---------------|-2-------------|-2-------------|
|---------------|-0-------------|---------------|---------------|
|-----4---------|---------------|---------------|---------------|

  neither          spoke   one    word                  but the
|-7---7---------|--9------------|-----0---------|---------------|
|-9---9---------|-10------10----|---0---0-------|-4---2---------|
|---9---9-------|----9-----9----|-6-------------|-4---4---------|
|---------------|------------11-|-9-------------|---4-----------|
|---------------|---------------|---------------|---------------|
|---------------|---------------|---------------|---------------|

  beating         of    our       own two         hearts was the
|-----0---------|---0---0-------|---0-----------|---0-0---------|
|---0---0-------|-----0---------|-------0-------|---------------|
|---------------|---------------|-----2---------|---------------|
|-2-------------|-1-------------|---------------|--------2------|
|---------------|---------------|-4-------------|-2-------------|
|---------------|---------------|---------------|-----4---------|

  only            sound I         heard                     The
|-------0-------|---------------|-0---0---------|-0-------------|
|-----0---------|-------4-------|-----0---------|-2-------------|
|---2-----------|-----4---------|---1---1-------|-----3---------|
|---------------|---4-----------|---------------|---2-----------|
|-0-------------|-2-------------|-4---2---------|---------------|
|---------------|---------------|---------------|-2-------------|

  beating         of    our       own two         hearts was the
|-----0---------|---------------|-------0-------|---0-0---------|
|---0---0-------|-7-------------|-----0---------|---------------|
|---------------|-----5---------|---2-----------|-------1-------|
|-2-------------|---4---4-------|---------------|-2-------------|
|---------------|---------------|-0-------------|---------------|
|---------------|-4-------------|---------------|-----4---------|

  on  - ly        sound I         heard
|-5-------------|---------------|---------------|---------------|
|-----0-2-------|---------------|-----0-2-------|-----0-2-------|
|---2-----------|-----2---------|---------------|---------------|
|---------------|---4-----------|---2-----------|---2-----------|
|-0-------------|-2-------------|-0-------------|-0-------------|
|---------------|---------------|---------------|---------------|

|---------------|-4-------------|---------------|---------------|
|-----0---------|-5-------------|---------------|---------------|
|----------2----|-4-------------|---------------|---------------|
|---2----2------|---------------|---------------|---------------|
|-0-------------|---------------|---------------|---------------|
|---------------|-0-------------|---------------|---------------|

            
            
Suggest correction
Creating personal tab
Creating personal tab
You can edit any tab online and save it as your Personal.

You can edit, replace or remove any tab part or add personal notes – all changes will be seen only by you.

Personal tabs can be accessed anytime from any device, even offline.
Learn more »
Give kudos to tab author, rate the tab!
1 2 3 4 5
comments
print report bad tab
guest
You may want to rate the tab now too:
select rating
Wanna post a correction for this tab? Suggest correction