Oops, an error
Loading. Please wait.

Somewhere Over The Rainbow tab

version 2
version 2

Whole song

  • This is the original tabulatur as per her live per... Show more
1,072 views 18 this week
1 commentread comment
1 2 3 4 5
1 last vote to show rating
add to favorites
×
Save as Personal and add changes to this tab that will be seen only by you. Learn more ›
×
You can save this tab as Personal to edit and correct it or add notes. All changes will be seen only by you. Learn more »
launch autoscroll
font size
0
reset
how to read this tab
guitar tuner
edit
Autoscroll
slow
fast
+/-
esc
set tempo
stop
Author
Difficulty
intermediate
-------------------------------------------------------------------------------
                Somewhere Over the Rainbow - by Eva Cassidy
-------------------------------------------------------------------------------
Tabbed by: 1587
E-mail: kippstom@gmail.com

Tuning: Standard

I couldn't quite hear the right notes in the other tab on here, so I've had a
go myself. It's not 100% accurate, but it's a little closer. 
Enjoy!

Chords

    G   D7sus4  Bm   G#7  C   Gmaj7
e|--3---3-------2----3--------1------|
B|------1-------3----6----1----------|
G|------2-------4----4---------------|
D|--------------4----3----2----------|
A|--2-----------2----5----3---2------|
E|--3----------------3--------3------|


Intro

                                                         D7sus4
e|-------------------------------------------------------3-------3-----------|
B|--0---3---0---3---0---3---0---3------1---3---1---3---------1---------------|
G|--0---0---0---0---0---0---0---0------0---0---0---0-------2---2---2---------|
D|----0---0---0---0---0---0---0----------2---2---2---2---0-------0-----------|
A|----------------------------------0--------------------------------0-------|
E|---------------------------------------------------------------------------|

Verse

    G                                    Bm               G#7
e|----------3------------------0-----------------2----------------3----------|
B|--0-----0------0-----------0-----0-----3-----3-----3----------------6------|
G|------0--------0---------0-------0---------4-------4----------4---4---4----|
D|----0--------0---------2-------2---2-----4-------4---4------3--------------|
A|---------------------------------------2------------------5----------------|
E|--3---------------2--0----------------------------------3------------------|

    C                G#m        G                Gmaj7
e|--3-------0----------------3----------3--------1---------------------------|
B|--------1-----1----4-----4----0-----0-----0--------0----1--3---------------|
G|------0-------0--------5----------0-------0--------------------------------|
D|----2-------2---2----5----------0-------0---0----0---0---------------------|
A|--3----------------3------------------------------------0--2---------------|
E|------------------------------3----------------3---------------------------|

    C          G#m            G
e|--3-------0----------3--------------------------------0---------------------|
B|--------1----4-----4-----4--0-----0--------0--------0-----0-----------------|
G|------0----------5-------5------0--------0--------0-------0-----------------|
D|----2----------5--------------0--------0--------2-------2---2---------------|
A|--3----------3--------------------------------------------------------------|
E|----------------------------3--------2--------0-----------------------------|

    D7sus4                             G
e|--3-------0---2/3--3---------------------------2---------------------------|
B|--------1--------------1----------0--0-----0---0---------------------------|
G|------2------------------2------2--------0-----0---------------------------|
D|----0----------------0--------0--------0-------0---------------------------|
A|--0----------------0---------------------------2---------------------------|
E|----------------------------2--------3---------3---------------------------|

Eva plays some verses without the second line of the verse, and simply skips it
and continues from the second G#m. 



            
            
Suggest correction
Creating personal tab
Creating personal tab
You can edit any tab online and save it as your Personal.

You can edit, replace or remove any tab part or add personal notes – all changes will be seen only by you.

Personal tabs can be accessed anytime from any device, even offline.
Learn more »
Give kudos to tab author, rate the tab!
1 2 3 4 5
comments
print report bad tab
1 comment total.
0 reply
jim.white1 36 Nov 15, 2017 12:01 PM

I'm enjoying learning to play this tab. It does need a capo on the first fret, and it feels like the chord names are a bit confused: G#m is really a Cm, and G#7 is really a G7 (relative to the capo). Otherwise it's a great, easy tab to play this lovely song :-)

guest
You may want to rate the tab now too:
select rating
Wanna post a correction for this tab? Suggest correction