Oops, an error
Loading. Please wait.

Wade In The Water tab

version 1
version 1

Whole song

11,530 views 15 this week
1 commentread comment
1 2 3 4 5
x 3
add to favorites
×
Save as Personal and add changes to this tab that will be seen only by you. Learn more ›
×
You can save this tab as Personal to edit and correct it or add notes. All changes will be seen only by you. Learn more »
launch autoscroll
font size
0
reset
how to read this tab
guitar tuner
edit
Autoscroll
slow
fast
+/-
esc
set tempo
stop
 Eva Cassidy - Wade in the Water (im gonna put in note and tab form)
 (listen to the song for timing)
 Drop D
  tablature (chorus and 'god's a gonna trouble the water')
E|---------------------------------------------------------|
B|---------------------------------------------------------|
G|---------------------------------------------------------|
D|---------------------------------------------------------|
A|------------------12--15-12--17-15-12-10-8---------------|
E|-10--13-10-13-10-----------------------------------------|

  verses
E|-------------------------------------------------------|
B|-------------------------------------------------------|
G|-------------------------------------------------------|
D|-------------------------------------------------------|
A|------------------17-20-17-20-17-17-12-15-17-----------|
E|-10--13-10-13-10---------------------------------------|

  notes
E|-------------------------------------------------------|
B|-------------------------------------------------------|
G|-------------------------------------------------------|
D|-------------------------------------------------------|
A|-------------A--C-A--D-C-A-G-F-------------------------|
E|-D--F-D-F-D--------------------------------------------|

E|-------------------------------------------------------|
B|-------------------------------------------------------|
G|-------------------------------------------------------|
D|-------------------------------------------------------|
A|-------------D-F-D-F-D-D-A-C-D-------------------------|
E|-D--F-D-F-D--------------------------------------------|

    EnJoY!

            
            
Suggest correction
Creating personal tab
Creating personal tab
You can edit any tab online and save it as your Personal.

You can edit, replace or remove any tab part or add personal notes – all changes will be seen only by you.

Personal tabs can be accessed anytime from any device, even offline.
Learn more »
Give kudos to tab author, rate the tab!
1 2 3 4 5
comments
print report bad tab
1 comment total.
0 reply
jcisking 10 Dec 05, 2006 02:45 AM

the Notes are right and the Tab is right but its NOT in Drop D!
play the tab in standard like it says on the actual tab
you'd only play it in drop D if you want to play it down the octave like this**
but otherwise its spot on! good job!

**
E|------------------------------------------------|
B|------------------------------------------------|
G|------------------------------------------------|
D|------------------------------------------------|
A|------------------0--3-0--5-3-0-----------------|
D|-0--3-0-3-0----------------------5--3-----------|

verses
E|------------------------------------------------|
B|------------------------------------------------|
G|----------------------------------------------- |
D|-----------------------------------------------|
A|------------------5-8-5-8-5-5-0-3-5----------- |
D|-0--3-0-3-0------------------------------------|

just for all you bass players! :)

guest
Wanna post a correction for this tab? Suggest correction