Oops, an error
Loading. Please wait.

Over tab

version 1
version 1

Whole song

6,893 views 3 this week
2 commentsread comments
1 2 3 4 5
x 4
add to favorites
×
Save as Personal and add changes to this tab that will be seen only by you. Learn more ›
×
You can save this tab as Personal to edit and correct it or add notes. All changes will be seen only by you. Learn more »
launch autoscroll
font size
0
reset
how to read this tab
guitar tuner
edit
Autoscroll
slow
fast
+/-
esc
set tempo
stop
-----------------------------------------------------------------------
                         "Over" by Evans Blue
-----------------------------------------------------------------------
Tabbed by: thewakebehindyou
Email: thewakebehindyou@excite.com
April 15th, 2008

Track #6 from Evans Blue's debut album
"The Melody and the Energetic Nature of Volume"

                         \===================/
                         =|      Tuning     |=
                         =|C# G# C# F# A# D#|=
                         =|4/4 @    ~145 bpm|=
=========================/===================\==========================


|=-=-=-=-=-=-=|
|Parker Lauzon|
|Rhythm Guitar|
|=-=-=-=-=-=-=|

Intro Riff - Verse I & II
     Q. E  E  E  E  Q   W   Q. E  E  E  E  Q  E  Q  E  E  Q
e|------------------------------------------------------------|
B|------------------------------------------------------------|
G|------------------------------------------------------------|
D|------------------7~~~~~  ---------------7-----5-----8--7---| (X4)
A|---------3--5-------------------3--5------------------------|
E|---0--0--------0----------0--0--------0-----0-----0---------|


Pre-Chorus Riff I & II
     W   W   Q. Q. Q. Q.  Q  Q
e|--------------------------------|
B|--------------------------------|
G|--------------------------------|
D|---0-------0--2--3--10--7--10---| 
A|---0-------0--2--3--10--7--10---|
E|---0-------0--2--3--10--7--10---|
 "Tell Me..."


Chorus I & II
     Q. E  Q. Q  Q  Q  Q.   Q. E  Q. Q  Q  Q  Q. 
e|------------------------------------------------|
B|------------------------------------------------|
G|------------------------------------------------|
D|---8--8--8--8--8--8--8----8--8--8--8--8--8--8---|
A|---8--8--8--8--8--8--8----8--8--8--8--8--8--8---|
E|---8--8--8--8--8--8--8----8--8--8--8--8--8--8---|

     Q. E  Q. Q  Q  Q  Q.   Q. Q. Q. Q.  Q  Q
e|------------------------------------------------|
B|------------------------------------------------|
G|------------------------------------------------|
D|---0--0--0--0--0--0--0----0--2--3--10--7--10----|
A|---0--0--0--0--0--0--0----0--2--3--10--7--10----|
E|---0--0--0--0--0--0--0----0--2--3--10--7--10----|

     Q. E  Q. Q  Q  Q  Q.   Q. E  Q. Q  Q  Q  Q. 
e|------------------------------------------------|
B|------------------------------------------------|
G|------------------------------------------------|
D|---8--8--8--8--8--8--8----8--8--8--8--8--8--8---|
A|---8--8--8--8--8--8--8----8--8--8--8--8--8--8---|
E|---8--8--8--8--8--8--8----8--8--8--8--8--8--8---|


Bridge
     E        Q. Q. Q. Q.  Q  Q       E
e|----------------------------------------------|
B|----------------------------------------------|
G|----------------------------------------------|
D|---0--------0--2--3--10--7--10------8---------|
A|---0-(x16)--0--2--3--10--7--10------8-(x32)---|
E|---0--------0--2--3--10--7--10------8---------|


Post-Bridge Riff
     E  E  E  E  E  E  E  E  E  E  E  E  E  E   E  E
e|------------------------------------------------------|
B|------------------------------------------------------|
G|------------------------------------------------------|
D|---0--0--0--2--2--2--3--3--3--5--5--5--7--7--10--10---| (x2)
A|---0--0--0--2--2--2--3--3--3--5--5--5--7--7--10--10---|
E|---0--0--0--2--2--2--3--3--3--5--5--5--7--7--10--10---|
     x  x  x  x  x  x  x  x  x  x  x  x

     Q. Q  E  Q  E  Q  E  E  E  Q
e|-----------------------------------|
B|-----------------------------------|
G|-----------------------------------|
D|---0--2--2--3--3--5--5--7--7--10---|
A|---0--2--2--3--3--5--5--7--7--10---|
E|---0--2--2--3--3--5--5--7--7--10---|
                                >

     Q. Q  E  Q  E  Q  E  E  E  Q
e|-----------------------------------|
B|-----------------------------------|
G|-----------------------------------|
D|---0--2--2--3--3--0--0--3--3--10---|
A|---0--2--2--3--3--0--0--3--3--10---|
E|---0--2--2--3--3--0--0--3--3--10---|
                                >

Outro
     E        Q. E  Q. Q  Q  Q  Q.   Q. E  Q. Q  Q  Q  Q.
e|---------------------------------------------------------|
B|---------------------------------------------------------|
G|---------------------------------------------------------|
D|---8--------0--0--0--0--0--0--0----0--0--0--0--0--0--0---|
A|---8-(x32)--0--0--0--0--0--0--0----0--0--0--0--0--0--0---|
E|---8--------0--0--0--0--0--0--0----0--0--0--0--0--0--0---|

     Q. E  Q. Q  Q  Q  Q.   E
e|------------------------------------|
B|------------------------------------|
G|------------------------------------|
D|---8--8--8--8--8--8--8----8---------|
A|---8--8--8--8--8--8--8----8-(X16)---|
E|---8--8--8--8--8--8--8----8---------|

     Q. E  Q. Q  Q  Q  Q.   Q. Q. Q. Q.  Q  Q
e|------------------------------------------------|
B|------------------------------------------------|
G|------------------------------------------------|
D|---0--0--0--0--0--0--0----0--2--3--10--7--10----|
A|---0--0--0--0--0--0--0----0--2--3--10--7--10----|
E|---0--0--0--0--0--0--0----0--2--3--10--7--10----|

     Q. E  Q. Q  Q  Q  Q.   E         W
e|----------------------------------------------|
B|----------------------------------------------|
G|----------------------------------------------|
D|---8--8--8--8--8--8--8----8---------0---------|
A|---8--8--8--8--8--8--8----8-(X16)---0-(END)---|
E|---8--8--8--8--8--8--8----8---------0---------|


===========================================================================


|=-=-=-=-=-=-=-=|
|Vlad Tanaskovic|
|  Lead Guitar  |
|=-=-=-=-=-=-=-=|

Pre-Chorus I & II
     Q. E  Q  E  Q  E  Q  E  E  Q  
e|-----------------------------------|
B|---------6-----5-------------------|
G|---------------------5-----5-------|
D|---0--0-----0-----0-----0-----8----| (x2)
A|-----------------------------------|
E|-----------------------------------|

     Q. E  Q  E  Q  E  Q  E  E  Q
e|-----------------------------------|
B|---------6-----5-------------------|
G|---------------------5-----5-------|
D|---0--0-----0-----0-----0-----7----| (x2)
A|-----------------------------------|
E|-----------------------------------|

     Q. E  Q  E  Q  E  Q  E  E  Q  
e|-----------------------------------|
B|---------6-----5-------------------|
G|---------------------5-----5-------|
D|---0--0-----0-----0-----0-----8----| (x2)
A|-----------------------------------|
E|-----------------------------------|

     Q. E  Q  E  Q  E  Q  E  E  Q
e|-----------------------------------|
B|---------6-----5-------------------|
G|---------------------5-----5-------|
D|---0--0-----0-----0-----0-----7----| (x2)
A|-----------------------------------|
E|-----------------------------------|

Chorus I & II
(softly)
     E E  E E  E E  E  Q  E E  E  E E E  E
e|-------------------------------------------|
B|---6p5--6p5--6p5--------6p5-----8p6p5------|
G|------------------5--3-------5---------5---|
D|-------------------------------------------| (x2)
A|-------------------------------------------|
E|-------------------------------------------|

     E E  E E  E E  E  Q  E E  E  E E E  E
e|-------------------------------------------|
B|---6p5--6p5--6p5--------6p5-----8p6p5------|
G|------------------5--7-------5---------5---|
D|-------------------------------------------| (x2)
A|-------------------------------------------|
E|-------------------------------------------|

     E E  E E  E E  E  Q  E E  E  E E E  E
e|-------------------------------------------|
B|---6p5--6p5--6p5--------6p5-----8p6p5------|
G|------------------5--3-------5---------5---|
D|-------------------------------------------| (x2)
A|-------------------------------------------|
E|-------------------------------------------|

Bridge 
(fortissimo)
     E E  E E  E E  E  Q  E E  E  E E E  E
e|-------------------------------------------|
B|---6p5--6p5--6p5--------6p5-----8p6p5------|
G|------------------5--7-------5---------5---|
D|-------------------------------------------| (x2)
A|-------------------------------------------|
E|-------------------------------------------|

     E E  E E  E E  E  Q  E E  E  E E E  E
e|-------------------------------------------|
B|---6p5--6p5--6p5--------6p5-----8p6p5------|
G|------------------5--3-------5---------5---|
D|-------------------------------------------| (x2)
A|-------------------------------------------|
E|-------------------------------------------|

Outro
(forte)
   E E  E E  E E  E  Q  E E  E  E E E  E
e|-------------------------------------------|
B|---6p5--6p5--6p5--------6p5-----8p6p5------|
G|------------------5--7-------5---------5---|
D|-------------------------------------------| (x2)
A|-------------------------------------------|
E|-------------------------------------------|

     E E  E E  E E  E  Q  E E  E  E E E  E
e|-------------------------------------------|
B|---6p5--6p5--6p5--------6p5-----8p6p5------|
G|------------------5--3-------5---------5---|
D|-------------------------------------------| (x2)
A|-------------------------------------------|
E|-------------------------------------------|

   E E  E E  E E  E  Q  E E  E  E E E  E
e|-------------------------------------------|
B|---6p5--6p5--6p5--------6p5-----8p6p5------|
G|------------------5--7-------5---------5---|
D|-------------------------------------------| (x2)
A|-------------------------------------------|
E|-------------------------------------------|

     E E  E E  E E  E  Q  E E  E  E E E  E
e|-------------------------------------------|
B|---6p5--6p5--6p5--------6p5-----8p6p5------|
G|------------------5--3-------5---------5---|
D|-------------------------------------------| (x2)
A|-------------------------------------------|
E|-------------------------------------------|


=========================================
| Legend
|
| E = Eighth
| Q = Quarter
| Q.= 1.5 Beats
| H = Half
| W = Whole
|
| h  hammer-on
| p  pull-off
| x  Mute note
| >  Accent
=========================================

            
            
Suggest correction
Creating personal tab
Creating personal tab
You can edit any tab online and save it as your Personal.

You can edit, replace or remove any tab part or add personal notes – all changes will be seen only by you.

Personal tabs can be accessed anytime from any device, even offline.
Learn more »
comments
print report bad tab
2 comments total.
+1 reply
K.i.S.A. 127 Apr 16, 2008 01:53 PM

Seems perfect to me. Great job.
Evans Blue definitely needs more awesome tabs.

0 reply
wake behind you 326 Apr 16, 2008 10:19 PM

thanks a lot, I plan to work on a few more in the near future.

guest
You may want to rate the tab now too:
select rating
Wanna post a correction for this tab? Suggest correction