Oops, an error
Loading. Please wait.

Shine Your Cadillac tab

version 1
version 1

Whole song

2,245 views 3 this week
2 commentsread comments
1 2 3 4 5
1 last vote to show rating
add to favorites
×
Save as Personal and add changes to this tab that will be seen only by you. Learn more ›
×
You can save this tab as Personal to edit and correct it or add notes. All changes will be seen only by you. Learn more »
launch autoscroll
font size
0
reset
how to read this tab
guitar tuner
edit
Autoscroll
slow
fast
+/-
esc
set tempo
stop
This is mainly the intro and the riff in the verses and it definately needs work but 
what I've got so far.
(Drop C)

It's got an odd rhythm but its easy. I'll note where to do down strokes or up strokes.
(Mostly palm muted)

Intro x2 (Parker)
---------------------------------------------|
---------------------------------------------|
---------------------------------------------|
---------------------------------0-----------|
-0-0-0-0-0-0-0-0-0-0-0--000-0-0--0-----------|
-0-0-0-0-0-0-0-0-0-0-0--000-0-0--0-----------|

 . . . . . . . . . . .  ... . .

 D D D D D D D D D D D  DUD D D  D


-------------------------------------------------------------------------|
-------------------------------------------------------------------------|
-------------------------------------------------------------------------|
---------------------------------0------------999-----------7979579------|
-0-0-0-0-0-0-0-0-0-0-0--000-0-0--0----0-0-0----------0-0-0---------------|
-0-0-0-0-0-0-0-0-0-0-0--000-0-0--0----0-0-0----------0-0-0---------------|
 . . . . . . . . . . .  ... . .       . . .          . . .

 D D D D D D D D D D D  DUD D D  D    D D D  D U D   D D D  D U D U D U


-------------------------------------------------------------------------|
-------------------------------------------------------------------------|
-----------999-----------7979765-----------------------------------------|
---0-0-0----------0-0-0--------------------------------------------------|
---0-0-0----------0-0-0--------------------------------------------------|
   . . .          . . .


Intro (Vlad)
Listen for the rhythm
------------------------------------------------------------|
------------------------------------------------------------|
------------------------------------------------------------|
------------------------------------------------------------|
-------777-999-555-99779-5-7-9------------------------------|
------------------------------------------------------------|

Chorus
(Parker)
Somewhere (vaguely) along these lines
-------------------------------------------------------------|
-------------------------------------------------------------|
-------------------------------------------------------------|
-0-0--9\7-7/8\5-5/7\3-30---0-0-9\7-7/8\5-5/7\3-35~-37~-------|
-0-0--9\7-7/8\5-5/7\3-30---0-0-9\7-7/8\5-5/7\3-35~-37~-------|
-0-0--9\7-7/8\5-5/7\3-30---0-0-9\7-7/8\5-5/7\3-35~-37~-------|

When I figured out the rest I'll post it. I know this is a very rough version but take 
easy on me.

            
            
Suggest correction
Creating personal tab
Creating personal tab
You can edit any tab online and save it as your Personal.

You can edit, replace or remove any tab part or add personal notes – all changes will be seen only by you.

Personal tabs can be accessed anytime from any device, even offline.
Learn more »
Give kudos to tab author, rate the tab!
1 2 3 4 5
comments
print report bad tab
2 comments total.
0 reply
wake behind you 326 Sep 01, 2008 11:47 AM

you've got the right tuning.

I'll add my version of the intro, I should've done it a long time ago but I wanted to perfect it but I think it'll help you in the long run to see what you're missing.

0 reply
LordThon 82 Sep 01, 2008 01:16 PM

Especially after watching bits and pieces of this live, I do believe Parker plays around with the frets on A while pedal toning the low E (so titled for ease of reference). Like...fifth, eighth, seventh, then a power chord embodying the eighth and tenth frets.

I think.

guest
Wanna post a correction for this tab? Suggest correction