Oops, an error
Loading. Please wait.
We have an official Inside Out tab made by UG professional guitarists. Check out the tab »
×
by Eve 6
37,406 views 9 this week
4 commentsread comments
1 2 3 4 5
x 7
add to favorites
×
Save as Personal and add changes to this tab that will be seen only by you. Learn more ›
×
You can save this tab as Personal to edit and correct it or add notes. All changes will be seen only by you. Learn more »
launch autoscroll
font size
0
reset
transpose
0
reset
display chords
guitar tuner
backing track
0:00
0:00
edit
Autoscroll
slow
fast
+/-
esc
set tempo
stop
Strumming
There is no strumming pattern for this song yet. and get +5 IQ
#----------------------------------PLEASE NOTE--------------------------------#
#This file is the author's own work and represents their interpretation of the#
#song. You may only use this file for private study, scholarship, or research.#
#-----------------------------------------------------------------------------#

Date: Fri, 08 May 1998 15:57:57 -0500
From: Isaac Smith 
Subject: e/eve_6/inside_out.crd

"Inside Out" by Eve 6 from their self-titled album.
Music and lyrics by Max Collins.  Transcribed by Isaac
Smith.

Intro:

   A E B   A E F#  E B F#  E B F#
e|-0-0-2-|-0-0-2-|-0-2-2-|-0-2-2-|
B|-2-0-4-|-2-0-2-|-0-4-2-|-0-4-2-|
G|-2-1-4-|-2-1-3-|-1-4-3-|-1-4-3-|
D|-2-2-4-|-2-2-4-|-2-4-4-|-2-4-4-|
A|-0-2-2-|-0-2-4-|-2-2-4-|-2-2-4-|
E|-0-0-2-|-0-0-2-|-0-2-2-|-0-2-2-|

Verse:
*Use mostly low strings*

**Substitute barred G chord in place of E right before**
**chorus begins**

    B     F#    A     G     B     F#    E**
e|-2-2-|-2-2-|-0-0-|-3-3-|-2-2-|-2-2-|-0-|-0-0-0-|
B|-4-4-|-2-2-|-2-2-|-4-4-|-4-4-|-2-2-|-0-|-0-0-0-|
G|-4-4-|-3-3-|-2-2-|-5-5-|-4-4-|-3-3-|-1-|-1-1-1-|
D|-4-4-|-4-4-|-2-2-|-5-5-|-4-4-|-4-4-|-2-|-2-2-2-|
A|-2-2-|-4-4-|-0-0-|-5-5-|-2-2-|-4-4-|-2-|-2-2-2-|
E|-4-2-|-2-2-|-0-0-|-3-3-|-2-2-|-2-2-|-0-|-0-0-0-|


Chorus:
*Use mostly low strings*

    A     E     B     B     A     E    F#   E
e|-0-0-|-0-0-|-2-2-|-2-2-|-0-0-|-0-0-|-2-|-0-0-|
B|-2-2-|-0-0-|-4-4-|-4-4-|-2-2-|-0-0-|-2-|-0-0-|
G|-2-2-|-1-1-|-4-4-|-4-4-|-2-2-|-1-1-|-3-|-1-1-|
D|-2-2-|-2-2-|-4-4-|-4-4-|-2-2-|-2-2-|-4-|-2-2-|
A|-0-0-|-2-2-|-2-4-|-2-4-|-0-0-|-2-2-|-4-|-2-2-|
E|-0-0-|-0-0-|-2-4-|-2-4-|-0-0-|-0-0-|-2-|-0-0-|

    B       F#      E     B          F#
e|-2-2-|-2-2-2-2-|-0-0-|-2-2-|-2-2-2-2-2-2-2-2-|
B|-4-4-|-2-2-2-2-|-0-0-|-4-4-|-2-2-2-2-2-2-2-2-|
G|-4-4-|-3-3-3-3-|-1-1-|-4-4-|-3-3-3-3-3-3-3-3-|
D|-4-4-|-4-4-4-4-|-2-2-|-4-4-|-4-4-4-4-4-4-4-4-|
A|-2-2-|-4-4-4-4-|-2-2-|-2-2-|-4-4-4-4-4-4-4-4-|
E|-2-2-|-2-2-2-2-|-0-0-|-2-2-|-2-2-2-2-2-2-2-2-|

Bridge1:
*Use mostly low strings*
    
   B   E       A       E       B
e|-2-2-0-|-0-0-0-|-0-0-0-|-0-0-2-|
B|-4-4-0-|-0-0-2-|-2-2-0-|-0-0-4-|
G|-4-4-1-|-1-1-2-|-2-2-1-|-1-1-4-|
D|-4-4-2-|-2-2-2-|-2-2-2-|-2-2-4-|
A|-2-2-2-|-2-2-0-|-0-0-2-|-2-2-2-|
E|-2-2-0-|-0-0-0-|-0-0-0-|-0-0-2-|

Bridge2:
*Use mostly low strings*

      B         E         A         E
e|-2-2-2-2-|-0-0-0-0-|-0-0-0-0-|-0-0-0-0-|
B|-4-4-4-4-|-0-0-0-0-|-2-2-2-2-|-0-0-0-0-|
G|-4-4-4-4-|-1-1-1-1-|-2-2-2-2-|-1-1-1-1-|
D|-4-4-4-4-|-2-2-2-2-|-2-2-2-2-|-2-2-2-2-|
A|-2-2-2-2-|-2-2-2-2-|-0-0-0-0-|-2-2-2-2-|
E|-2-2-2-2-|-0-0-0-0-|-0-0-0-0-|-0-0-0-0-|


Outro:
   E   B   E    F#
e|-0-|-2-|-0-|-2-2-|
B|-0-|-4-|-0-|-2-2-|
G|-1-|-4-|-1-|-3-3-|
D|-2-|-4-|-2-|-4-4-|
A|-2-|-2-|-2-|-4-4-|
E|-0-|-2-|-0-|-2-2-|

Order of Sections:
Intro
Verse(Use barred G instead of E third and final time)
Chorus
Verse(Use barred G instead of E second and final time)
Chorus
Bridge1
Bridge2(Chorus sung over the top)
Bridge1
Outro

Lyrics:

Chorus:
I would swallow my pride
I would choke on the rhines
But the lack thereof 
Would leave me empty inside
I would swallow my doubt
Turn it inside out
Find nothing but faith in nothing
Want to put my tender heart in a blender
Watch it spin round to a beautiful oblivion
Rendezvous then I'm through with you

Verse1:
I burn, burn like a wicker cabinet 
Chalk white and oh so frail
I see our time has gotten stale
The tick tock of the clock is painful
All sane and logical
I want to tear it off the wall 
I hear clips and phrases
I think sick like ginger ale
My stomack turns and I exhale

Verse2:
So Cal is where my mind states
But it's not my state of mind
I'm not as ugly sad as you
Or am I origami
Folded up and just pretend
Demented as the motives in your head

Bridge:
I alone am the one you don't know you need
Take heed, feed your ego
Make me blind when your eyes close
Sink when you get close
Tie me to the bedpost

            
            
Suggest correction
Creating personal tab
Creating personal tab
You can edit any tab online and save it as your Personal.

You can edit, replace or remove any tab part or add personal notes – all changes will be seen only by you.

Personal tabs can be accessed anytime from any device, even offline.
Learn more »
comments
print report bad tab
4 comments total. Showing first comments.
+1 reply
nix 10 Oct 06, 2002 08:00 PM

on the lyrics of the first verse it says
"the tick tock of the clock is painful
all sane and logical
I want to tear it off the wall
I hear clips and phrases"
~when it should be
"I want to tear it off the wall
I hear words in clips and phrases.

+1 reply
duffmansweenie 54 Feb 12, 2006 04:28 PM

worst tab ever

+1 reply
surfhaleysurf 160 Jul 26, 2006 04:02 PM

tabs are perfect!!!! just played the whole song on guitar before i went to comments and its perfect. great job.....seriously duffmansweenie is crazzzy. excellent!

guest
Wanna post a correction for this tab? Suggest correction