Oops, an error
Loading. Please wait.

The Twistinside tab

version 2
version 2

Whole song

1,298 views 3 this week
1 commentread comment
1 2 3 4 5
2 more votes to show rating
add to favorites
×
Save as Personal and add changes to this tab that will be seen only by you. Learn more ›
×
You can save this tab as Personal to edit and correct it or add notes. All changes will be seen only by you. Learn more »
launch autoscroll
font size
0
reset
how to read this tab
guitar tuner
edit
Autoscroll
slow
fast
+/-
esc
set tempo
stop
-------------------------------------------------------------------------------
       THE TWISTINSIDE - Everclear - As Off The Album 'Sparkle And Fade'
-------------------------------------------------------------------------------
Tabbed by: Carrie Davies

Tuning: Standard

Gt.1
e|---4---4---4---4---4---4---4---4---10----10----10---10-----10----10----10---10-----|
B|-----6-------6-------6-------6--------12----12---------12-----12----12---------12--|
G|-0-------0-------0-------0-------0----------------0-------0---------------0--------|
D|-----------------------------------------------------------------------------------|
A|-----------------------------------------------------------------------------------|
E|-----------------------------------------------------------------------------------|
Gt.2 With Whammy
e|-----------------------------------------------------------------------------------|
B|-----------------------------------------------------------------------------------|
G|-0-------0-------0-------0-------0------------------------0------------------------|
D|-----------------------------------------------------------------------------------|
A|-----------------------------------------------------------------------------------|
E|-----------------------------------------------------------------------------------|

Gt.1
e|-10-10-10-10-10/3-3-3-3-3\5-5-5-5-5/3-3-3-3-3\10--|
B|-12-12-12-12-12/5-5-5-5-5\7-7-7-7-7/5-5-5-5-5\12--| x8
G|--------------------------------------------------|
D|--------------------------------------------------|
A|--------------------------------------------------|
E|--------------------------------------------------|
We have been sleeping with the lights on just about every night
Cause we are afraid what the dark might bring
I know I know its just a childish fear
That grows and grows wild in the middle of me
Gonna get a new tattoo black and stretching around my arm
Like a life that is visible and real
I know I know its stupid and immature
I just wanna give shape to the face that twists inside both u and me

Gt.1
e|-----------------10-10-10-8--8--6-6-5-5--------------------|
B|-----------------12-12-12-10-10-8-8-7-7--------------------|
G|-8-8-8-8-8-8-8-8------------------------8-8-8-8-8-8-8-8-7--|
D|-8-8-8-8-8-8-8-8------------------------8-8-8-8-8-8-8-8-7--|
A|-6-6-6-6-6-6-6-6------------------------6-6-6-6-6-6-6-6-5--|
E|-----------------------------------------------------------|
Breathing fire doesnt look good on a resume neither does anything else we do gotta get
for the

Gt.1
e|-10-10-10-10-10/3-3-3-3-3\5-5-5-5-5/3-3-3-3-3\10--|
B|-12-12-12-12-12/5-5-5-5-5\7-7-7-7-7/5-5-5-5-5\12--| x2
G|--------------------------------------------------|
D|--------------------------------------------------|
A|--------------------------------------------------|
E|--------------------------------------------------|
Real world Yeah Yeah we gotta grow up

Gt.1
e|----10------------3-------5-------3------|
B|-12----12-12-12/5---5-5\7---7-7/5---5-5--| x4
G|-----------------------------------------|
D|-----------------------------------------|
A|-----------------------------------------|
E|-----------------------------------------|
U know I like to die for a while everyday in the afternoon
Like to let the arms of a bar wrap around me tight
Just gonna sprawl in the front booth big drink above my head
Cross eyed and smiling as I watch the world go twisting by

Gt.1
e|-10--| Repeated over and over real quick
B|-----|
G|-----|
D|-----|
A|-----|
E|-----|
I dont wanna die with u or live in the same dark room I dont wanna see Your bloodshot  
more no more I just wanna take this girl all curls and big brown eyes

Gt.1
e|-11--| Repeated over and over real quick again
B|-----|
G|-----|
D|-----|
A|-----|
E|-----|
I cant take the pain of wanting her needing her I know the

Gt.1
e|-10-10-10-10-10/8--8--8--8--8-/6-6-6-6-5--| The last chord is played real fast and
B|-12-12-12-12-12/10-10-10-10-10/8-8-8-8-7--| many times
G|------------------------------------------|
D|------------------------------------------|
A|------------------------------------------|
E|------------------------------------------|
Secret of your soul I just dont wanna know Yeah man we gotta grow up

Gt.1
e|---3-----5-----7-----5-----3-----5-----7-----5----|
B|-5---5-7---7-5---5-7---7-5---5-7---7-5---5-7---7--|
G|--------------------------------------------------|
D|--------------------------------------------------|
A|--------------------------------------------------|
E|--------------------------------------------------|
Yeah we gotta grow up! Yeah we gotta grow up! Yeah we gotta grow up! Yeah we gotta grow
Yeah we gotta grow up! Na Na Na Na Na Na Na Na Na Go!
Gt.1
e|--------------------------------|
B|--------------------------------| x5
G|---------8-8-8-8---------5-6-5--|
D|-5-5-5-5-8-8-8-8-8-8-8-8-5-6-5--|
A|-5-5-5-5-6-6-6-6-8-8-8-8-3-4-3--|
E|-3-3-3-3---------6-6-6-6--------|
Yeah! Yeah! Yeah! Yeah!
Yeah I Give Up! Yeah I Give Up! Yeah I Give Up! Yeah I Give Up!
Do U Ever Give Up! Do U Ever Give Up! Do U Ever Give Up! Do U Ever!

Gt.1 SOLO
e|------------------------------------------------------------|
B|------------------------------------------------------------|
G|-0-2-3-5-3-2-3--0-2-3-5-3-2-3--0-2-3--0-2-3--0-2-3-5-3-2-3--|
D|------------------------------------------------------------|
A|------------------------------------------------------------|
E|------------------------------------------------------------|
AwwYeah! Hey!

Gt.1
e|-10--12--| Each chord is played really fast and many times u can hear when they swap
B|-10--12--| between one another
G|-10--12--|
D|---------|
A|---------|
E|---------|
I dont wanna do this anymore! I dont wanna! Get me out!

Gt.1
e|--------------------|
B|--------------------| x8
G|-15-15-15-15-18-17--|
D|--------------------|
A|--------------------|
E|--------------------|
Ohh

Gt.1
e|--------| Each note is played really fast and many times u can hear when they swap
B|--------| between one another
G|-18-17--|
D|--------|
A|--------|
E|--------|
Oh oh oh oh oh oh OOOWHOOOAAAH!

Gt.1 With Whammy
e|--------------------------|
B|--------------------------| x5
G|-12-12-14-14-15-15-14-14--|
D|--------------------------|
A|--------------------------|
E|--------------------------|
Gt.2 Enters 3rd time
e|-----------------------------------|
B|-----------------------------------| x2
G|----------8-8-8-8---------5-5-5-5--|
D|-/5-5-5-5-8-8-8-8-8-8-8-8-5-5-5-5--|
A|-/5-5-5-5-6-6-6-6-8-8-8-8-3-3-3-3--|
E|-/3-3-3-3---------6-6-6-6----------|
Gt.3 Enters 4th time (Referring to Gt.1)
e|----------------------------------|
B|-2-2-2-2-2-2-2-2-3-3-3-3-3-3-3-3--|
G|----------------------------------|
D|----------------------------------|
A|----------------------------------|
E|----------------------------------|
I cant take it! I cant take it!
I cant take it! I cant take it! I cant take it! I cant take it!

Gt.1 With Whammy
e|--------------------------|
B|--------------------------| x2
G|-12-12-14-14-15-15-14-14--|
D|--------------------------|
A|--------------------------|
E|--------------------------|
Im Fairly certain that both Gt.2 and Gt.3 play this part
e|-10-10-10-10--10-10-10-10--10-10-10-10-12-12-12-12-12-12-12-12--|
B|-10-10-10-10--10-10-10-10--10-10-10-10-12-12-12-12-12-12-12-12--| x3
G|-10-10-10-10--10-10-10-10--10-10-10-10-12-12-12-12-12-12-12-12--|
D|----------------------------------------------------------------|
A|----------------------------------------------------------------|
E|----------------------------------------------------------------|
Yeah I cant take it!
Im saying that I cant take it!

Gt.1 With Whammy
e|--------------------------|
B|--------------------------| x2
G|-12-12-14-14-15-15-14-14--|
D|--------------------------|
A|--------------------------|
E|--------------------------|
Gt.2
e|--------------------------------------------------|
B|-14-14-14-14-14-14-14-14-14-14-14-14-14-14-14-14--| x2
G|--------------------------------------------------|
D|--------------------------------------------------|
A|--------------------------------------------------|
E|--------------------------------------------------|
Yeah I Give Up!

Gt.1 With Whammy
e|--------------------------|
B|--------------------------| x4
G|-12-12-14-14-15-15-14-14--|
D|--------------------------|
A|--------------------------|
E|--------------------------|
Gt.2
e|-------------|
B|-------------|
G|----8-----5--|
D|-5--8--8--5--|
A|-5--6--8--3--|
E|-3-----6-----|

Gt.1 and Gt.2 OUTRO
e|-9--16-14-13-11p10-9b--| The 1st note is only played the 1st time through
B|-----------------------| x3
G|-----------------------|
D|-----------------------|
A|-----------------------|
E|-----------------------|

| /  slide up
| \  slide down
| p  pull-off
===============================================================================

Well that's it. There's a few parts where I've only put down that Gt.1 plays but if the
guitars aren't doing anything they might play that part too. Its a shame that
Guitar TAB book Sparkle And Fade is out of print cause it has every song off the album 
it and I'm dieing to get a hold of it. With any luck it'll come back into print!!!

PLEASE RATE!!!

            
            
Suggest correction
Creating personal tab
Creating personal tab
You can edit any tab online and save it as your Personal.

You can edit, replace or remove any tab part or add personal notes – all changes will be seen only by you.

Personal tabs can be accessed anytime from any device, even offline.
Learn more »
Give kudos to tab author, rate the tab!
1 2 3 4 5
comments
print report bad tab
1 comment total.
0 reply
Basskittycat 43 Jul 17, 2017 07:19 PM

I like this version compared to the other. Nice job, man.

guest
Wanna post a correction for this tab? Suggest correction