Oops, an error
Loading. Please wait.

No Donnie These Men Are Nihilists tab

version 1
version 1

Whole song

Interactive

676 views 1 this week
no commentswrite comment
1 2 3 4 5
3 more votes to show rating
add to favorites
×
Save as Personal and add changes to this tab that will be seen only by you. Learn more ›
×
You can save this tab as Personal to edit and correct it or add notes. All changes will be seen only by you. Learn more »
launch autoscroll
font size
0
reset
how to read this tab
guitar tuner
edit
Autoscroll
slow
fast
+/-
esc
set tempo
stop
Drop D tuning should be fine, it sounds the same to me.  This isn't hard to learn if you 
it a little time.  I am very sure these are right, make sure you actually listen to the 
to get the correct timing.

Only other thing you need to know is that . = palm muting.

Part 1. Intro - both guitars
e|----------|
b|----------|
g|----------|
d|--0-2-3-1-|
a|--0-2-3-1-|
D|--0-2-3-1-|


Part 2. Guitar 1
e|----------------------------------------------------------|
B|--(do-this-part-three-times)----------(fourth-time)-------|
G|----------------------------------------------------------|
D|--000000000--000-000------------------000000000--0-2-3-1--|
A|--000000000--000-000------------------000000000--0-2-3-1--|
D|--000000000--000-000------------------000000000--0-2-3-1--|
    .........  ... ...                  .........
e|----------------------------------------------------------|
B|--(do-this-part-three-times)----------(fourth-time)-------|
G|----------------------------------------------------------|
D|--0-0--0-0---00000--------------------0-0--0-0---0-2-3-1--|
A|--0-0--0-0---00000--------------------0-0--0-0---0-2-3-1--|
D|--0-0--0-0---00000--------------------0-0--0-0---0-2-3-1--|
    . .  . .   ......                   . .  . .

2.  Guitar 2
e|-------------------------------------------------------------------------------------------------|
b|--------------------------------------13-13-13-13------------------------------------------------|
g|--------------14-14-14-14-12-12-12-12-------------10-10-10-10-10-10-10-10-12-12-12-12-10-12-10-9-|
d|--12-12-12-12------------------------------------------------------------------------------------|
a|-------------------------------------------------------------------------------------------------|
D|-------------------------------------------------------------------------------------------------|

e|-------------------------------------------------------------------------------------------------|
b|--------------------------------------13-13-13-13-15-15-15-15-15-15-15-15-18--15--18-17----------|
g|--------------14-14-14-14-12-12-12-12------------------------------------------------------------|
d|--12-12-12-12------------------------------------------------------------------------------------|
a|-------------------------------------------------------------------------------------------------|
D|-------------------------------------------------------------------------------------------------|


Part 3. Guitar 1
e|-----------------------------------------------------------------------------------------------------|
B|-----------------------------------------------------------------------------------------------------|
G|-----------------------------------------------------------------------------------------------------|
D|--0---------8---------10---------------3--2---3--2-0---------8---------10----------------------------|
A|--0---------8---------10-------------3------1------0---------8---------10---------------8-8-8-8-8----|
D|--0---------8---------10---------------------------0---------8---------10-------------0--------------|

e|--------------------------------------------------------------------------------------------------------------|
B|--------------------------------------------------------------------------------------------------------------|
G|--------------------------------------------------------------------------------------------------------------|
D|--0---------8---------10---------------3--2---3--2-0---------8---------10-------------------------------------|
A|--0---------8---------10-------------3------1------0---------8---------10---------------8-8-8-8-8---8-8-8-8-8-|
D|--0---------8---------10---------------------------0---------8---------10-------------0-----------0-----------|

3. Guitar 2 - if you listen very closely you can hear a difference between the two 
one lets the note ring while the other does this.
e|-----------------------------------------------------------------------------------------------------|
b|-----------------------------------------------------------------------------------------------------|
g|-----------------------------------------------------------------------------------------------------|
d|--0-0-0-0-0-8-8-8-8-8-10-10-10-10-10-8-------------0-0-0-0-0-8-8-8-8-8-10-10-10-10-10----------------|
a|--0-0-0-0-0-8-8-8-8-8-10-10-10-10-10-8-------------0-0-0-0-0-8-8-8-8-8-10-10-10-10-10---8-8-8-8-8----|
D|--0-0-0-0-0-8-8-8-8-8-10-10-10-10-10-8-------------0-0-0-0-0-8-8-8-8-8-10-10-10-10-10-0--------------|

e|--------------------------------------------------------------------------------------------------------------|
b|--------------------------------------------------------------------------------------------------------------|
g|--------------------------------------------------------------------------------------------------------------|
d|--0-0-0-0-0-8-8-8-8-8-10-10-10-10-10-8-------------0-0-0-0-0-8-8-8-8-8-10-10-10-10-10-------------------------|
a|--0-0-0-0-0-8-8-8-8-8-10-10-10-10-10-8-------------0-0-0-0-0-8-8-8-8-8-10-10-10-10-10---8-8-8-8-8---8-8-8-8-8-|
D|--0-0-0-0-0-8-8-8-8-8-10-10-10-10-10-8-------------0-0-0-0-0-8-8-8-8-8-10-10-10-10-10-0-----------0-----------|


Part 4. Guitar 1 & 2 (play 4x)
e|------------------------|
b|------------------------|
g|------------------------|
d|--00-00000-00000-00000--|
a|--00-00000-00000-00000--|
D|--00-00000-00000-00000--|
    .. ..... ..... .....


Part 5. Guitar 1 & 2
e|-----13----13----13-----13----13-----13----13-----13-|
b|-----17----17----17-----17----17-----17----17-----17-|
g|-----------------------------------------------------|
d|--00----00----00----000----00----000----00----000----|
a|--00----00----00----000----00----000----00----000----|
D|--00----00----00----000----00----000----00----000----|
    ..    ..    ..    ...    ..    ...    ..    ...
e|-----13----13----13-----13----13-----13----13-----13-|
b|-----17----17----17-----17----17-----17----17-----17-|
g|-----------------------------------------------------|
d|--00----000----00----000----00----000----00----000---|
a|--00----000----00----000----00----000----00----000---|
D|--00----000----00----000----00----000----00----000---|
    ..    ...    ..    ...    ..    ...    ..    ...

Part 6. Guitar 1 - It sounds like a triple strum, but it may not be, just do whatever 
feel more comfortable with.
e|-------------------------------------------------------------------------|
b|--(play-5x)----------------------------(6th-time)------------------------|
g|-------------------------------------------------------------------------|
d|--000-000-000-000-----------------------000-000-000-000------------------|
a|--000-000-000-000--1-0------------------000-000-000-000------------------|
D|--000-000-000-000------3-2-3-5-3-2------000-000-000-000------------------|
    ... ... ... ...                       ... ... ... ...
6. Guitar 2 - It comes in the 2nd time, hard to hear but I think I'm right.
e|---------------------------1-3-1-0---------------------------------------|
B|-------------------------------------------------------------------------|
G|-------------------3-5-3-2-----------------------------------------------|
D|--000-000-000-000-----------------------000-000-000-000------------------|
A|--000-000-000-000-----------------------000-000-000-000------------------|
D|--000-000-000-000-----------------------000-000-000-000------------------|
    ... ... ... ...                       ... ... ... ...


Part 7. Guitar 1 - play 4x
e|--------------------------------------------------------------------|
b|---------------------------------------------------------(4th-time)-|
g|--------------------------------------------------------------------|
d|-000-000-000-000-000-000-3-2---000-000-000-000-3-2--8-7--3-2--8-7--0|
a|-000-000-000-000-000-000-3-2---000-000-000-000-3-2--8-7--3-2--8-7--0|
D|-000-000-000-000-000-000-3-2---000-000-000-000-3-2--8-7--3-2--8-7--0|
   ... ... ... ... ... ...       ... ... ... ...

7. Guitar 2 - no idea, sounds crazy and hard.


Part 8. Both Guitars (Final Breakdown, "shake it like a Polaroid")
e|-----13----13----13-----13----13-----13----13-----13-|
b|-----17----17----17-----17----17-----17----17-----17-|
g|-----------------------------------------------------|
d|--00----000----00----000----00----000----00----000---|
a|--00----000----00----000----00----000----00----000---|
D|--00----000----00----000----00----000----00----000---|
    ..    ...    ..    ...    ..    ...    ..    ...
e|-----13----13----13-----13----13-----13----13-----13----|
b|-----17----17----17-----17----17-----17----17-----17----|
g|--------------------------------------------------------|
d|--00----000----00----000----00----000----00----000----0-|
a|--00----000----00----000----00----000----00----000----0-|
D|--00----000----00----000----00----000----00----000----0-|
    ..    ...    ..    ...    ..    ...    ..    ...

            
            
Suggest correction
Creating personal tab
Creating personal tab
You can edit any tab online and save it as your Personal.

You can edit, replace or remove any tab part or add personal notes – all changes will be seen only by you.

Personal tabs can be accessed anytime from any device, even offline.
Learn more »
Give kudos to tab author, rate the tab!
1 2 3 4 5
comments
print report bad tab
guest
You may want to rate the tab now too:
select rating
Wanna post a correction for this tab? Suggest correction