Oops, an error
Loading. Please wait.

Maybe tab

version 2
version 2

Whole song

2,369 views 1 this week
1 commentread comment
1 2 3 4 5
2 more votes to show rating
add to favorites
×
Save as Personal and add changes to this tab that will be seen only by you. Learn more ›
×
You can save this tab as Personal to edit and correct it or add notes. All changes will be seen only by you. Learn more »
launch autoscroll
font size
0
reset
how to read this tab
guitar tuner
edit
Autoscroll
slow
fast
+/-
esc
set tempo
stop
Difficulty
This is the main stuff played throughout the whole song which uses the same chord.
The song is played as 1..23
  
e|--8------8---------------------------------|
B|--8---------8-----8---10-----10---6------6-|
G|------------7---------9-----------5--------|
D|------5---------5---------7-----------3----|
A|-------------------------------------------|
E|-------------------------------------------|

This part is the hamer on part play it however many times depending on the part.
e|-----------------------------------------|
B|-5h7h5-------5h7h5-----------------------|
G|-------7--5--------7--5----------5--7--5-|
D|-------------------------7----5----------|
A|-----------------------------------------|
E|-----------------------------------------|

This is the little solo im pretty sure its not fully correct so tell me about any changes.
e|------------------------------------0-|
B|-------3------------------------------|
G|-3--5-----5--6--5--6--2-2-2-0--0h2----|
D|--------------------------------------|
A|--------------------------------------|
E|--------------------------------------|

e|------------------------------------------------------------|
B|----------------------0--1--3--1--0--1--0-----1-------------|
G|--------0--2--3h5--3-----------------------2-----2--0--2--0-|
D|-2-2-2------------------------------------------------------|
A|------------------------------------------------------------|
E|------------------------------------------------------------|

            
            
Suggest correction
Creating personal tab
Creating personal tab
You can edit any tab online and save it as your Personal.

You can edit, replace or remove any tab part or add personal notes – all changes will be seen only by you.

Personal tabs can be accessed anytime from any device, even offline.
Learn more »
Give kudos to tab author, rate the tab!
1 2 3 4 5
comments
print report bad tab
1 comment total.
0 reply
X-ChrisCross-X 161 Jun 19, 2012 02:16 AM

Hi there, made a little mistake, second part is:

e|-------------------------------------------------------|
B|...-6----6-------5h8h5-------5h8h5---------------------|
G|----5------5-5-5-------7--5-5------7-5---------(5)-7-5-|
D|-------3-----5-------------------------7---5-7---------|
A|-------------------------------------------------------|
E|-------------------------------------------------------|

guest
Wanna post a correction for this tab? Suggest correction