Oops, an error
Loading. Please wait.

Break Away tab

version 1
version 1

Whole song

Interactive

by Everlit
70 views 1 this week
no commentswrite comment
1 2 3 4 5
3 more votes to show rating
add to favorites
×
Save as Personal and add changes to this tab that will be seen only by you. Learn more ›
×
You can save this tab as Personal to edit and correct it or add notes. All changes will be seen only by you. Learn more »
launch autoscroll
font size
0
reset
how to read this tab
guitar tuner
edit
Autoscroll
slow
fast
+/-
esc
set tempo
stop
Author
Title: Everlit
Artist: Break Away
Album: Renovate
Tabber: Ryan Voelker
Tempo = 128
Electric Guitar

Legend
L - tied note
x - dead note
h - hammer on/pull off
b - bend
s - slide
~ - vibrato
g - ghost note
> - accentuated note
t - trill
M - palm mute
. - staccato
P - popping (bass)
S - slapping (bass)
+ - tapping
W - wide vibrato
< - fade in
w - whammy bar
= - tremolo picking
v - brush up
^ - brush down
V - pick stroke up
n - pick stroke down


C#|----------------------------------------------------|
G#|----------------------------------------------------|
E |----------------------------------------------------|
B |----------------------------------------------------|
F#|--------------3s-5----------------------------------|
B |--0-----0-----------0-----------0-----3s-5--0-------|


----------------------------------------------------|
----------------------------------------------------|
----------------------------------------------------|
--------------------------------------8-------------|
--------------3s-5--------------------8-------------|
--------0-----------0-----------0M----8-------------|


----------------------------------------------------|
----------------------------------------------------|
----------------------------------------------------|
----------------------------------------------------|
--------------3s-5----------------------------------|
--0-----0-----------0-----------0-----3s-5--0-------|


----------------------------------------------------|
----------------------------------------------------|
----------------------------------------------------|
----------------------------------------------------|
--------------3s-5--------------1-----1-----1-------|
--------0-----------0-----------3M----3-----3-------|


----------------------------------------------------|
----------------------------------------------------|
----------------------------------------------------|
----------------------------------------------------|
--------------3s-5----------------------------------|
--0-----0-----------0-----------0-----3s-5--0-------|


----------------------------------------------------|
----------------------------------------------------|
----------------------------------------------------|
--------------------------------------8-------------|
--------------3s-5--------------------8-------------|
--------0-----------0-----------0M----8-------------|


----------------------------------------------------|
----------------------------------------------------|
----------------------------------------------------|
----------------------------------------------------|
--------------3s-5----------------------------------|
--0-----0-----------0-----------0-----3s-5--0-------|


----------------------------------------------------|-------|-------|-------|
----------------------------------------------------|-------|-------|-------|
----------------------------------------------------|-------|-------|-------|
----------------------------------------------------|-------|-------|-------|
--------------3s-5--------------1-----1-----1-------|-------|-------|-------|
--------0-----------0-----------3M----3-----3-------|-------|-------|-------|


-------|-------|-------|-------|-------|-------|-------|----|-------|-------|
-------|-------|-------|-------|-------|-------|-------|----|-------|-------|
-------|-------|-------|-------|-------|-------|-------|----|-------|-------|
-------|-------|-------|-------|-------|-------|-------|----|-------|-------|
-------|-------|-------|-------|-------|-------|-------|----|-------|-------|
-------|-------|-------|-------|-------|-------|-------|----|-------|-------|


-------|-------|-------|-------|----------|----------------------------|
-------|-------|-------|-------|----------|----------------------------|
-------|-------|-------|--10---|--12------|----------------------------|
-------|-------|-------|--8----|--10------|--7s-5-----5s-7-----0-------|
-------|-------|-------|--8----|--10-7----|--5s-3-----3s-5-----0-------|
-------|-------|-------|--8----|--10------|--------0--------0--0-------|


----------------------------|----------------------------|
----------------------------|----------------------------|
----------------------------|--10-10-10-10-10-10-10-10---|
-----7s-5-----7s-10-0-------|--8--8--8--8--8--8--8--8----|
-----5s-3-----5s-8--0-------|--8--8--8--8--8--8--8--8----|
--0--------0--------0-------|--8--8--8--8--8--8--8--8----|


----------------------------|----------------------------|
----------------------------|----------------------------|
--7--7--7--7--5--5--5--5----|----------------------------|
--5--5--5--5--3--3--3--3----|--7s-5-----5s-7-----0-------|
--5--5--5--5--3--3--3--3----|--5s-3-----3s-5-----0-------|
--5--5--5--5--3--3--3--3----|--------0--------0--0-------|


----------------------------|----------------------------|
----------------------------|----------------------------|
----------------------------|--10-10-10-10-10-10-10-10---|
-----7s-5-----7s-10-0-------|--8--8--8--8--8--8--8--8----|
-----5s-3-----5s-8--0-------|--8--8--8--8--8--8--8--8----|
--0--------0--------0-------|--8--8--8--8--8--8--8--8----|


----------------------------|
----------------------------|
--7--7--7--7--5-------------|
--5--5--5--5--3--10M10M10M--|
--5--5--5--5--3--10M10M10M--|
--5--5--5--5--3--10M10M10M--|


----------------------------------------------------|
----------------------------------------------------|
----------------------------------------------------|
----------------------------------------------------|
--------------3s-5----------------------------------|
--0-----0-----------0-----------0-----3s-5--0-------|


----------------------------------------------------|
----------------------------------------------------|
----------------------------------------------------|
--------------------------------------8-------------|
--------------3s-5--------------------8-------------|
--------0-----------0-----------0M----8-------------|


----------------------------------------------------|
----------------------------------------------------|
----------------------------------------------------|
----------------------------------------------------|
--------------3s-5----------------------------------|
--0-----0-----------0-----------0-----3s-5--0-------|


----------------------------------------------------|
----------------------------------------------------|
----------------------------------------------------|
----------------------------------------------------|
--------------3s-5--------------1-----1-----1-------|
--------0-----------0-----------3M----3-----3-------|


----------------------------|----------------------------|
----------------------------|----------------------------|
--------7-------------------|--------7-------------------|
--0--0-----0-----0--3--0----|-----0-----0-----0--3~------|
----------------------------|----------------------------|
----------------------------|----------------------------|


----------------------------|----------------------------|
----------------------------|----------------------------|
--------7-------------------|--------7-------------------|
--0--0-----0-----0--3--0----|-----0-----0-----3M-3M-3M---|
----------------------------|-----------------1M-1M-1M---|
----------------------------|----------------------------|


----------------------------------------------------|
--------------------------3--3--6--3-----3--6--3----|
--------7-------------------------------------------|
--0--0-----0-----0--3--0----------------------------|
----------------------------------------------------|
----------------------------------------------------|


----------------------------------------------------|
-----------------------------3--6--3-----3--6~------|
--------7-------------------------------------------|
-----0-----0-----0--3~------------------------------|
----------------------------------------------------|
----------------------------------------------------|


----------------------------------------------------|
--------------------------3--3--6--3-----3--6--3----|
--------7-------------------------------------------|
--0--0-----0-----0--3--0----------------------------|
----------------------------------------------------|
----------------------------------------------------|


----------------------------------------------------|-------|----------|
-----------------------------3--6--3----------------|-------|----------|
--------7-------------------------------------------|--10---|--12------|
-----0-----0-----3M-3M-3M----------------3M-3M-3M---|--8----|--10------|
-----------------1M-1M-1M----------------1M-1M-1M---|--8----|--10-7----|
----------------------------------------------------|--8----|--10------|


----------------------------|----------------------------|
----------------------------|----------------------------|
----------------------------|----------------------------|
--7s-5-----5s-7-----0-------|-----7s-5-----7s-10-0-------|
--5s-3-----3s-5-----0-------|-----5s-3-----5s-8--0-------|
--------0--------0--0-------|--0--------0--------0-------|


----------------------------|----------------------------|
----------------------------|----------------------------|
--10-10-10-10-10-10-10-10---|--7--7--7--7--5--5--5--5----|
--8--8--8--8--8--8--8--8----|--5--5--5--5--3--3--3--3----|
--8--8--8--8--8--8--8--8----|--5--5--5--5--3--3--3--3----|
--8--8--8--8--8--8--8--8----|--5--5--5--5--3--3--3--3----|


----------------------------|----------------------------|
----------------------------|----------------------------|
----------------------------|----------------------------|
--7s-5-----5s-7-----0-------|-----7s-5-----7s-10-0-------|
--5s-3-----3s-5-----0-------|-----5s-3-----5s-8--0-------|
--------0--------0--0-------|--0--------0--------0-------|


----------------------------|----------------------------|
----------------------------|----------------------------|
--10-10-10-10-10-10-10-10---|--7--7--7--7--5-------------|
--8--8--8--8--8--8--8--8----|--5--5--5--5--3--10M10M10M--|
--8--8--8--8--8--8--8--8----|--5--5--5--5--3--10M10M10M--|
--8--8--8--8--8--8--8--8----|--5--5--5--5--3--10M10M10M--|


----------------------------|----------------------------|
----------------------------|----------------------------|
----------------------------|----------------------------|
--7s-5-----5s-7-----0-------|-----7s-5-----7s-10-0-------|
--5s-3-----3s-5-----0-------|-----5s-3-----5s-8--0-------|
--------0--------0--0-------|--0--------0--------0-------|


----------------------------|----------------------------|
----------------------------|----------------------------|
--10-10-10-10-10-10-10-10---|--7--7--7--7--5--5--5--5----|
--8--8--8--8--8--8--8--8----|--5--5--5--5--3--3--3--3----|
--8--8--8--8--8--8--8--8----|--5--5--5--5--3--3--3--3----|
--8--8--8--8--8--8--8--8----|--5--5--5--5--3--3--3--3----|


----------------------------|----------------------------|
----------------------------|----------------------------|
----------------------------|----------------------------|
--7s-5-----5s-7-----0-------|-----7s-5-----7s-10-0-------|
--5s-3-----3s-5-----0-------|-----5s-3-----5s-8--0-------|
--------0--------0--0-------|--0--------0--------0-------|


----------------------------|----------------------------|
----------------------------|----------------------------|
--10-10-10-10-10-10-10-10---|--7--7--7--7--5-------------|
--8--8--8--8--8--8--8--8----|--5--5--5--5--3--10M10M10M--|
--8--8--8--8--8--8--8--8----|--5--5--5--5--3--10M10M10M--|
--8--8--8--8--8--8--8--8----|--5--5--5--5--3--10M10M10M--|


----------------------------------------------------|
----------------------------------------------------|
----------------------------------------------------|
----------------------------------------------------|
----------------------------------------------------|
--0--0--0--0-----0--0--0--0.----------0--0--0--0----|


----------------------------------------------------|
----------------------------------------------------|
----------------------------------------------------|
----------------------------------------------------|
----------------------------------------------------|
-----0--0--0--0-----------6s-8--8--8--8~------------|


----------------------------------------------------|
----------------------------------------------------|
----------------------------------------------------|
----------------------------------------------------|
----------------------------------------------------|
--0--0--0--0-----0--0--0--0.----------0--0--0--0----|


----------------------------------------------------|
----------------------------------------------------|
----------------------------------------------------|
----------------------------------------------------|
----------------------------------------------------|
-----0--0--0--0-----------8s-10-10-10-10~-----------|


----------------------------|----------------------------|
--10-10-10-10-10-10-10-10---|--10-10-10-10-10-10-10-10---|
--10-10-10-10-10-10-10-10---|--12-12-12-12-12-12-12-12---|
--8--8--8--8--8--8--8--8----|--10-10-10-10-10-10-10-10---|
--8--8--8--8--8--8--8--8----|--10-10-10-10-10-10-10-10---|
--8--8--8--8--8--8--8--8----|--10-10-10-10-10-10-10-10---|


----------------------------|----------------------------|
--13-13-13-13-13-13-13-13---|----------------------------|
--14-14-14-14-14-14-14-14---|--12-12-12-12---------------|
--12-12-12-12-12-12-12-12---|--10-10-10-10---------------|
--12-12-12-12-12-12-12-12---|--10-10-10-10---------------|
--12-12-12-12-12-12-12-12---|--10-10-10-10-11b-----------|


----------------------------|----------------------------|
----------------------------|----------------------------|
----------------------------|----------------------------|
--7s-5-----5s-7-----0-------|-----7s-5-----7s-10-0-------|
--5s-3-----3s-5-----0-------|-----5s-3-----5s-8--0-------|
--------0--------0--0-------|--0--------0--------0-------|


----------------------------|----------------------------|
----------------------------|----------------------------|
----------------------------|----------------------------|
--7s-5-----5s-7-----0-------|-----7s-5-----3M-3M-3M------|
--5s-3-----3s-5-----0-------|-----5s-3-----1M-1M-1M------|
--------0--------0--0-------|--0--------0----------------|


----------------------------|----------------------------|
----------------------------|----------------------------|
----------------------------|----------------------------|
--7s-5-----5s-7-----0-------|-----7s-5-----7s-10-0-------|
--5s-3-----3s-5-----0-------|-----5s-3-----5s-8--0-------|
--------0--------0--0-------|--0--------0--------0-------|


----------------------------|----------------------------|
----------------------------|----------------------------|
--10-10-10-10-10-10-10-10---|--7--7--7--7--5--5--5--5----|
--8--8--8--8--8--8--8--8----|--5--5--5--5--3--3--3--3----|
--8--8--8--8--8--8--8--8----|--5--5--5--5--3--3--3--3----|
--8--8--8--8--8--8--8--8----|--5--5--5--5--3--3--3--3----|


----------------------------|----------------------------|
----------------------------|----------------------------|
----------------------------|----------------------------|
--7s-5-----5s-7-----0-------|-----7s-5-----7s-10-0-------|
--5s-3-----3s-5-----0-------|-----5s-3-----5s-8--0-------|
--------0--------0--0-------|--0--------0--------0-------|


----------------------------|----------------------------|
----------------------------|----------------------------|
--10-10-10-10-10-10-10-10---|--7--7--7--7--5-------------|
--8--8--8--8--8--8--8--8----|--5--5--5--5--3--10M10M10M--|
--8--8--8--8--8--8--8--8----|--5--5--5--5--3--10M10M10M--|
--8--8--8--8--8--8--8--8----|--5--5--5--5--3--10M10M10M--|


----------------------------|----------------------------|
----------------------------|----------------------------|
----------------------------|----------------------------|
--7s-5-----5s-7-----0-------|-----7s-5-----7s-10-0-------|
--5s-3-----3s-5-----0-------|-----5s-3-----5s-8--0-------|
--------0--------0--0-------|--0--------0--------0-------|


----------------------------|----------------------------|
----------------------------|----------------------------|
--10-10-10-10-10-10-10-10---|--7--7--7--7--5--5--5--5----|
--8--8--8--8--8--8--8--8----|--5--5--5--5--3--3--3--3----|
--8--8--8--8--8--8--8--8----|--5--5--5--5--3--3--3--3----|
--8--8--8--8--8--8--8--8----|--5--5--5--5--3--3--3--3----|


----------------------------|----------------------------|
----------------------------|----------------------------|
----------------------------|----------------------------|
--7s-5-----5s-7-----0-------|-----7s-5-----7s-10-0-------|
--5s-3-----3s-5-----0-------|-----5s-3-----5s-8--0-------|
--------0--------0--0-------|--0--------0--------0-------|


----------------------------|----------------------------|
----------------------------|----------------------------|
--10-10-10-10-10-10-10-10---|--7--7--7--7--5-------------|
--8--8--8--8--8--8--8--8----|--5--5--5--5--3--10M10M10M--|
--8--8--8--8--8--8--8--8----|--5--5--5--5--3--10M10M10M--|
--8--8--8--8--8--8--8--8----|--5--5--5--5--3--10M10M10M--|


----------------------------------------------------|
----------------------------------------------------|
----------------------------------------------------|
----------------------------------------------------|
----------------------------------------------------|
--0--0--0--0-----0--0--0--0.----------0--0--0--0----|


----------------------------------------------------|
----------------------------------------------------|
----------------------------------------------------|
----------------------------------------------------|
----------------------------------------------------|
-----0--0--0--0-----------6s-8--8--8--8~------------|


----------------------------------------------------|
----------------------------------------------------|
----------------------------------------------------|
----------------------------------------------------|
----------------------------------------------------|
--0--0--0--0-----0--0--0--0.----------0--0--0--0----|


----------------------------------------------------||
----------------------------------------------------||
----------------------------------------------------||
----------------------------------------------------||
----------------------------------------------------||
-----0--0--0--0-----------8s-10-10-10-10~-----------||


            
            
Suggest correction
Creating personal tab
Creating personal tab
You can edit any tab online and save it as your Personal.

You can edit, replace or remove any tab part or add personal notes – all changes will be seen only by you.

Personal tabs can be accessed anytime from any device, even offline.
Learn more »
Give kudos to tab author, rate the tab!
1 2 3 4 5
comments
print report bad tab
guest
You may want to rate the tab now too:
select rating
Wanna post a correction for this tab? Suggest correction