Oops, an error
Loading. Please wait.

Running tab

version 1
version 1

Whole song

4,042 views 1 this week
2 commentsread comments
1 2 3 4 5
x 6
add to favorites
×
Save as Personal and add changes to this tab that will be seen only by you. Learn more ›
×
You can save this tab as Personal to edit and correct it or add notes. All changes will be seen only by you. Learn more »
launch autoscroll
font size
0
reset
how to read this tab
guitar tuner
edit
Autoscroll
slow
fast
+/-
esc
set tempo
stop
Author
Difficulty
---------------------------------------------------------------
Song: Evermore - Running
Tabed By: Scrath
---------------------------------------------------------------


Intro/Riff

E||-------6----9------------11----9----|
B||--7---------------7-----------------|
G||------------------------------------|
D||------------------------------------|
A||------------------------------------|
E||------------------------------------|
                     OR
                   ------|
What Ever Is More  ------|
Easy For You       --11--|
                   ------|
                   ------|
                   ------|

Bass Part But Can Be Played As Power Chords

E||-----------------|
B||-----------------|
G||--4---------6----|
D||--4----4----6----|
A||--2----4----4----|
E||-------2---------|

________________
uilVeaminJs

            
            
Suggest correction
Creating personal tab
Creating personal tab
You can edit any tab online and save it as your Personal.

You can edit, replace or remove any tab part or add personal notes – all changes will be seen only by you.

Personal tabs can be accessed anytime from any device, even offline.
Learn more »
comments
print report bad tab
2 comments total.
0 reply
roo6339 81 Aug 03, 2006 05:39 PM

I'm pretty sure there's more too it than that...

0 reply
Scrath 109 Oct 25, 2006 04:01 AM

There is but thats the main parts and chords i didnt have time for the hole song

guest
You may want to rate the tab now too:
select rating
Wanna post a correction for this tab? Suggest correction