Oops, an error
Loading. Please wait.

Tell Me Im A Wreck bass

version 3
version 3

Whole song

144 views 1 this week
no commentswrite comment
1 2 3 4 5
3 more votes to show rating
add to favorites
×
Save as Personal and add changes to this tab that will be seen only by you. Learn more ›
×
You can save this tab as Personal to edit and correct it or add notes. All changes will be seen only by you. Learn more »
launch autoscroll
font size
0
reset
guitar tuner
edit
Autoscroll
slow
fast
+/-
esc
set tempo
stop
-------------------------------------------------------------------------------
                            Tell Me I'm A Wreck - Every Avenue
-------------------------------------------------------------------------------
Tabbed by: Zach

Tuning: Standard (EADG)

INTRO - Guitar Only

Verse 1 
G|---------------------------------------------------------------------------|
D|---------------------------------------------------------------------------|
A|-------------------------3-3-3-3-3-3-3-3-5-5-5-5-5-5-5-5-1-1-1-1-1-1-1-1---|
E|-/1-1-1-1-1-1-1-1-1-1-1-1--------------------------------------------------|

Verse 1 Cont...
G|---------------------------------------------------------------------------|
D|---------------------------------------------------------------------------|
A|-3-3-3-3-3-3-3-3-----------------------------------------------------------|
E|---------------------------------------------------------------------------|

PRE-CHORUS:
G|-------------------------------------------------------------------------------------------|
D|-------------------------------------------------------------------------------------------|
A|-5-5-5-5--5-5-5-5-5--3-3-3-1-1-1-1-1-1-1-3-3-3--5-5-5-5-5-5-5-5-5-5-5-5-5-5--3-3-3-3-3-/15-|
E|-------------------------------------------------------------------------------------------|

CHORUS: "When you tell me I'm a Wreck..."
G|---------------------------------------------------------------------------|
D|---------------------------------------------------------------------------|
A|-----------------3-3-3-3-3-3-3-3-5-5-5-5-5-5-5-5-1-1-1-1-1-1-1-/13---------|
E|-1-1-1-1-1-1-1-1-----------------------------------------------------------|

G|---------------------------------------------------------------------------|
D|---------------------------------------------------------------------------|
A|-----------------3-3-3-3-3-3-3-3--1-1-1-1-1-1-1-1-1------------------------|
E|-1-1-1-1-1-1-1-1-----------------------------------------------------------|

POST CHORUS: "I guess you never knew me at all..."
G|---------------------------------------------------------------------------|
D|---------------------------------------------------------------------------|
A|------------------3-3-3-3-3-3-3-3------------------------------------------|
E|-1-1-1-1-1-1-1-1-----------------------------------------------------------|

VERSE 2
PRE CHORUS
CHORUS

Bridge (Chorus notes with lead guitar solo).

CHORUS (1/2 vocals only, then bass comes in).

LAST PART IS JUST THE 2nd Half Of The Chorus Notes.

| /  slide up
| \  slide down
| h  hammer-on
| p  pull-off
| ~  vibrato
| +  harmonic
| x  Mute note
===============================================================================

            
            
Suggest correction
Creating personal tab
Creating personal tab
You can edit any tab online and save it as your Personal.

You can edit, replace or remove any tab part or add personal notes – all changes will be seen only by you.

Personal tabs can be accessed anytime from any device, even offline.
Learn more »
Give kudos to tab author, rate the tab!
1 2 3 4 5
comments
print report bad tab
guest
You may want to rate the tab now too:
select rating
Wanna post a correction for this tab? Suggest correction