Oops, an error
Loading. Please wait.

Depressionista tab

version 1
version 1

Whole song

2,119 views 1 this week
2 commentsread comments
1 2 3 4 5
x 4
add to favorites
×
Save as Personal and add changes to this tab that will be seen only by you. Learn more ›
×
You can save this tab as Personal to edit and correct it or add notes. All changes will be seen only by you. Learn more »
launch autoscroll
font size
0
reset
how to read this tab
guitar tuner
edit
Autoscroll
slow
fast
+/-
esc
set tempo
stop
Every Time I Die
"Depressionista"
as heard off of The Big Dirty

A little shinfo for ya, nobody tabbed this awesome song so i gave it a shot.
this is my first tab, so please rate, and comment!
thanks

Drop D


E-----------------------------|
B-----------------------------|
G-----------------------------|
D--------------------------77-|
A--7p0-0------7p0-0--------77-|
D-------8p0-0-------8p0-0--77-|

(x2)
E-------------------------------------------------------------------------------------|
B-------------------------------------------------------------------------------------|
G-------------------------------------------------------------------------------------|
D-0000000--77777777--------------------------0000000----------------------------------|  
A-0000000--77777777--7p0-0---------7p0-------0000000--------7p0-0------------7p0------|
D-0000000--77777777--------8-55555-----0-66--0000000--6-6-6-------8-555555-------0-66-|

E--------------------------|        E-----------------------------|
B--------------------------|        B-----------------------------|
G--------------------------|        G-----------------------------|
D-88888888--77777777--4-4--|  x3    D-8888888--7777--6-6-6--6-6-6-|
A-88888888--77777777--4-4--|        A-8888888--7777--6-6-6--6-6-6-|
D-88888888--77777777--4-4--|        D-8888888--7777--6-6-6--6-6-6-|
 
E-xxxxxxxx------xxxxxxxxx--------|      
B-xxxxxxxx------xxxxxxxxx--------|       
G-xxxxxxxx------xxxxxxxxx--------|       
D-xxxxxxxx--33--xxxxxxxxx--------|   x3 
A-xxxxxxxx--33--xxxxxxxxx--------|       
D-xxxxxxxx--33--xxxxxxxxx--6-6-6-|       

E-xxxxxxxx------xxxxxxxxx---------------|
B-xxxxxxxx------xxxxxxxxx---------------|
G-xxxxxxxx------xxxxxxxxx---------------|
D-xxxxxxxx--33--xxxxxxxxx---------------|
A-xxxxxxxx--33--xxxxxxxxx---------------|
D-xxxxxxxx--33--xxxxxxxxx--6-6-6--6-6-6-|


E--------|      E---------------------------|
B--------|      B---------------------------|
G--8-8-8-|      G-8-8-8---8-8-8---8-8-8---8-|
D--7-7-7-|  x3  D-7-7-7---7-7-7---7-7-7---7-|
A--6-6-6-|      A-6-6-6---6-6-6---6-6-6---6-|
D--------|      D---------------------------|

(x2)
E-------------------------------------------------------------------------------------|
B-------------------------------------------------------------------------------------|
G-------------------------------------------------------------------------------------|
D-0000000--77777777--------------------------0000000----------------------------------|  
A-0000000--77777777--7p0-0---------7p0-------0000000--------7p0-0------------7p0------|
D-0000000--77777777--------8-55555-----0-66--0000000--6-6-6-------8-555555-------0-66-|

E--------------------------|        E-----------------------------|
B--------------------------|        B-----------------------------|
G--------------------------|        G-----------------------------|
D-88888888--77777777--4-4--|   x3   D-8888888--7777--6-6-6--6-6-6-|
A-88888888--77777777--4-4--|        A-8888888--7777--6-6-6--6-6-6-|
D-88888888--77777777--4-4--|        D-8888888--7777--6-6-6--6-6-6-|

E---------------|       
B---------------|      
G---------------|      
D---------------|   
A---------------|       
D-3-3-3-4-3-0-3-|      

E-xxxxxxxx------xxxxxxxxx--------|       
B-xxxxxxxx------xxxxxxxxx--------|      
G-xxxxxxxx------xxxxxxxxx--------|       
D-xxxxxxxx--33--xxxxxxxxx--------|   x2 
A-xxxxxxxx--33--xxxxxxxxx--------|      
D-xxxxxxxx--33--xxxxxxxxx--6-6-6-|   

E-----------------------------------|
B-----------------------------------|
G-----------------------------------|
D-0000000000--33--0000000000--------|   x2
A-0000000000--33--0000000000--------|
D-0000000000--33--0000000000--6-6-6-|
  ..........      ..........                                          

E-------------------------------------------------|
B---------(really------------(really--------------|
G----------fast)--------------fast)---------------|
D-00000000-0000-000--33---000-0000-0000000--------|
A-00000000-0000-000--33---000-0000-0000000--------|
D-00000000-0000-000--33---000-0000-0000000--6-6-6-|
  ........ .... ...       ... .... .......

E-------------------------------------------------------|
B---------(really------------(really--------------------|
G----------fast)--------------fast)---------------------|
D-00000000-0000-000--33---000-0000-0000000--6-6-6--6-6-6|
A-00000000-0000-000--33---000-0000-0000000--6-6-6--6-6-6|
D-00000000-0000-000--33---000-0000-0000000--6-6-6--6-6-6|
  ........ .... ...       ... .... .......

E-------------|
B-------------|
G-------------|
D-3-3-3-4-0-3-|
A-3-3-3-4-0-3-|
D-3-3-3-4-0-3-|

The End
Hope you like!

            
            
Suggest correction
Creating personal tab
Creating personal tab
You can edit any tab online and save it as your Personal.

You can edit, replace or remove any tab part or add personal notes – all changes will be seen only by you.

Personal tabs can be accessed anytime from any device, even offline.
Learn more »
comments
print report bad tab
2 comments total.
0 reply
JoAllen 414 Feb 04, 2009 05:42 AM

several of the notes are off:

intro is either: or:
e|------------------------------| |------------------------------|
B|------------------------------| |------------------------------|
G|------------------------------| |------------------------------|
D|------------------------------| |-3-----------3----------------|
A|8-----------8-----------6---6-| |-------------------------6--6-|
D|--6-0-6-3-0---6-0-6-3-0-6---6-| |---3-0-6-3-0---3-0-6-3-0-6--6-|

verse:
e|---------------------------------|
B|---------------------------------|
G|---------------------------------|
D|---------------------------------|
A|---------------------------------|
D|-0-0-0-0-0-0-0-0-6-6-6-6-6-6-6-6-|

e|---------------------------------|
B|---------------------------------|
G|---------------------------------|
D|-------------------3-------------|
A|-8-----------------------6---6---|
D|---6-0-6---3-3-3-0---3-0-6---6---|

prechorus:
e|---------------------------------| |---|
B|---------------------------------| |---|
G|-4-4-4-4-4-4-4-4-3-3-3-3---------| |---|
D|-4-4-4-4-4-4-4-4-3-3-3-3---------| |---|
A|-2-2-2-2-2-2-2-2-1-1-1-1-3-3-3-3-| |-6-|
D|-------------------------3-3-3-3-| end with measure of |-6-|

several other areas are incorrect, but I think you should be able to figure them out from the correct chords I just gave you.

0 reply
theguitarman501 83 Dec 05, 2010 06:15 AM

this tab sucks

guest
You may want to rate the tab now too:
select rating
Wanna post a correction for this tab? Suggest correction