Oops, an error
Loading. Please wait.

Ebolorama tab

version 1
version 1

Whole song

Interactive

10,357 views 6 this week
2 commentsread comments
1 2 3 4 5
x 6
add to favorites
×
Save as Personal and add changes to this tab that will be seen only by you. Learn more ›
×
You can save this tab as Personal to edit and correct it or add notes. All changes will be seen only by you. Learn more »
launch autoscroll
font size
0
reset
how to read this tab
guitar tuner
edit
Autoscroll
slow
fast
+/-
esc
set tempo
stop
this tabs perfect i wudnt try arguing with me cus i no that for a fact. 
Gtrs I, II
  PM----|   PM----|         PM----|   PM----|   PM|
|-------------------------|---------------------------|
|-------------------------|---------------------------|
|-------------------6-6-6-|---------------------------|
|-------------------------|---------------------------|
|-0-0-0-0-3-0-0-0-0-4-4-4-|-0-0-0-0-3-0-0-0-0-3-0-0-3-|
|-0-0-0-0-4-0-0-0-0-------|-0-0-0-0-4-0-0-0-0-4-0-0-4-|


                                               2/4
  PM----|   PM----|         PM----|
|-------------------------|-------------------|---------||
|-------------------------|-------------------|---------||
|-------------------6-6-6-|-------------------|---------||
|-------------------------|-------------------|---------||
|-0-0-0-0-3-0-0-0-0-4-4-4-|-0-0-0-0-3---------|---------||
|-0-0-0-0-4-0-0-0-0-------|-0-0-0-0-4--0-1-4--|-0-1-4---||


   Section B
    N.C.
   4/4
    PM----|   PM----|         PM----|   PM--|     PM|
||--------------------------|---------------------------|
||o-------------------------|---------------------------|
||--------------------6-6-6-|---------------------------|
||--------------------------|---------------------------|
||o-0-0-0-0-3-0-0-0-0-4-4-4-|-0-0-0-0-3-0-0-0-0-3-0-0-3-|
||--0-0-0-0-4-0-0-0-0-------|-0-0-0-0-4-0-0-0-0-4-0-0-4-|


  PM----|   PM----|         PM----|
|-------------------------|---------------------|
|-------------------------|---------------------|
|-------------------6-6-6-|---------------------|
|-------------------------|---------------------|
|-0-0-0-0-3-0-0-0-0-4-4-4-|-0-0-0-0-3-----------|
|-0-0-0-0-4-0-0-0-0-------|-0-0-0-0-4--0-1-4----|


  PM----|   PM----|         PM----|   PM--|     PM|
|-------------------------|---------------------------|
|-------------------------|---------------------------|
|-------------------6-6-6-|---------------------------|
|-------------------------|---------------------------|
|-0-0-0-0-3-0-0-0-0-4-4-4-|-0-0-0-0-3-0-0-0-0-3-0-0-3-|
|-0-0-0-0-4-0-0-0-0-------|-0-0-0-0-4-0-0-0-0-4-0-0-4-|


                                               2/4
  PM----|   PM----|         PM----|
|-------------------------|-------------------|-----------||
|-------------------------|-------------------|----------o||
|-------------------6-6-6-|-------------------|-----------||
|-------------------------|-------------------|-----------||
|-0-0-0-0-3-0-0-0-0-4-4-4-|-0-0-0-0-3---------|----------o||
|-0-0-0-0-4-0-0-0-0-------|-0-0-0-0-4--0-1-4--|-0-1-4-----||

Section C
    N.C.
   4/4
                              PM----|
||------------------|--------------------|-----------------|--------------||
||o-----------------|--------------------|-----------------|-------------o||
||--6-6-6-6-6-6-6-6-|-6-6-6-6------------|-6-6-6-6-6-6-6-6-|--------------||
||------------------|--------------------|-----------------|--------------||
||o-4-4-4-4-4-4-4-4-|-4-4-4-4-0-0-0-0-3--|-4-4-4-4-4-4-4-4-|-------------o||
||------------------|---------0-0-0-0-4--|-----------------|-0-1-4--0-1-4-||

 Section D
  N.C.
  Gtr I
  PM----|
|--------------------|--------------------|
|--------------------|--------------------|
|--------------------|--------------------|
|--------------------|--------------------|
|-0-0-0-0-3----------|--------------------|
|-0-0-0-0-4-0--------|-------------0-1-4--|
|
| Gtr II
| PM----|              PM----|
|--------------------|--------------------|
|--------------------|--------------------|
|--------------6-6-6-|--------------------|
|--------------------|--------------------|
|-0-0-0-0-3----4-4-4-|-0-0-0-0-3----------|
|-0-0-0-0-4-0--------|-0-0-0-0-4-0-0-1-4--|


                                   PM--|
|---------------|------------------------|
|---------------|------------------------|
|----------<5>--|------------------------|
|---------------|------------------------|
|-0--3--5-------|------------------0-0-0-|
|-0--4--6-------|------------------0-0-0-|
|
|                                  PM--|
|---------------|------------------------|
|----------<7>--|------------------------|
|---------------|------------------------|
|---------------|------------------------|
|-0--3--5-------|-3-(3)s5--3-(3)s5-0-0-0-|
|-0--4--6-------|-4-(4)s6--4-(4)s6-0-0-0-|


       PM--------------------------------|
|--------------------|---------------------|
|--------------------|---------------------|
|-<5>----------------|---------------------|
|--------------------|---------------------|
|------0-0-0-0-0-0-0-|-0-0-0-0-0-0-0-0-0-0-|
|------0-0-0-0-0-0-0-|-0-0-0-0-0-0-0-0-0-0-|
|
|      PM--------------------------------|
|--------------------|---------------------|
|-<7>----------------|---------------------|
|--------------------|---------------------|
|--------------------|---------------------|
|------0-0-0-0-0-0-0-|-0-0-0-0-0-0-0-0-0-0-|
|------0-0-0-0-0-0-0-|-0-0-0-0-0-0-0-0-0-0-|


       PM--------------------------------|
|--------------------|---------------------|
|-<7>----------------|---------------------|
|--------------------|---------------------|
|--------------------|---------------------|
|------0-0-0-0-0-0-0-|-0-0-0-0-0-0-0-0-0-0-|
|------0-0-0-0-0-0-0-|-0-0-0-0-0-0-0-0-0-0-|
|
|      PM--------------------------------|
|--------------------|---------------------|
|-<7>----------------|---------------------|
|--------------------|---------------------|
|--------------------|---------------------|
|------0-0-0-0-0-0-0-|-0-0-0-0-0-0-0-0-0-0-|
|------0-0-0-0-0-0-0-|-0-0-0-0-0-0-0-0-0-0-|


                                   PM--|
|---------------|------------------------|
|---------------|------------------------|
|----------<5>--|------------------------|
|---------------|------------------------|
|-0--3--5-------|-3-(3)s5--3-(3)s5-0-0-0-|
|-0--4--6-------|-4-(4)s6--4-(4)s6-0-0-0-|
|
|                                  PM--|
|---------------|------------------------|
|----------<7>--|------------------------|
|---------------|------------------------|
|---------------|------------------------|
|-0--3--5-------|-3-(3)s5--3-(3)s5-0-0-0-|
|-0--4--6-------|-4-(4)s6--4-(4)s6-0-0-0-|


       PM--------|        PM--------|
|------------------|------------------||
|------------------|-<7>--------------||
|-<5>--------------|------------------||
|------------------|------------------||
|------0-0-0-0-0-0-|------0-0-0-0-0-0-||
|------0-0-0-0-0-0-|------0-0-0-0-0-0-||
|
|      PM--------|        PM--------|
|------------------|------------------||
|-<7>--------------|-<7>--------------||
|------------------|------------------||
|------------------|------------------||
|------0-0-0-0-0-0-|------0-0-0-0-0-0-||
|------0-0-0-0-0-0-|------0-0-0-0-0-0-||


   Section E
                        1.,2.,3.               4.
    N.C.
                                                Gtr III
    PM----|                                     TP
                                             4x
||---------------------|---------------------||---------------------||
||o--------------------|--------------------o||---------------------||
||---------------------|---------------------||---------------------||
||---------------------|---------------------||---------------------||
||o-0-0-0-0-3----------|--------------------o||-x\------------------||
||--0-0-0-0-4-0--------|---------------------||-x\------------------||
|
|   PM----|              PM----|                PM-----|
|                                            4x
||---------------------|---------------------||---------------------||
||o--------------------|--------------------o||---------------------||
||---------------6-6-6-|---------------------||---------------------||
||---------------------|---------------------||---------------------||
||o-0-0-0-0-3----4-4-4-|-0-0-0-0-3----------o||-0--0-0-0-3----------||
||--0-0-0-0-4-0--------|-0-0-0-0-4-0-0-1-4---||-0--0-0-0-4-0-0-1-4--||

   Section F
    N.C.
    Gtrs I, II
||--------------------|------------------|
||o-------------------|------------------|
||--6-6-6-6-6-6-(6)---|------------------|
||--------------------|------------------|
||o-4-4-4-4-4-4-(4)---|------------------|
||------------------3-|-(3)-0-3-4-0-1-4--|


|-------------------|--------------------||
|-------------------|-------------------o||
|-6-6-6-6-6-6-(6)---|--------------------||
|-------------------|--------------------||
|-4-4-4-4-4-4-(4)---|-------------------o||
|-----------------3-|-(3)-0-3-4-0-1-4----||


   Section G
    N.C.
                              PM----|
||------------------|--------------------|-----------------|--------------||
||o-----------------|--------------------|-----------------|-------------o||
||--6-6-6-6-6-6-6-6-|-6-6-6-6------------|-6-6-6-6-6-6-6-6-|--------------||
||------------------|--------------------|-----------------|--------------||
||o-4-4-4-4-4-4-4-4-|-4-4-4-4-0-0-0-0-3--|-4-4-4-4-4-4-4-4-|-------------o||
||------------------|---------0-0-0-0-4--|-----------------|-0-1-4--0-1-4-||

   Section H
                        1.,2.                  3.
    N.C.
    Gtr I
    PM----|
                                             3x
||---------------------|---------------------||--------------------||
||o--------------------|--------------------o||--------------------||
||---------------------|---------------------||--------------------||
||---------------------|---------------------||--------------------||
||o-0-0-0-0-3----------|--------------------o||--------------------||
||--0-0-0-0-4-0--------|---------------------||-------------0-1-4--||
|
|   Gtr II
|   PM----|              PM----|                PM----|
|                                            3x
||---------------------|---------------------||--------------------||
||o--------------------|--------------------o||--------------------||
||---------------6-6-6-|---------------------||--------------------||
||---------------------|---------------------||--------------------||
||o-0-0-0-0-3----4-4-4-|-0-0-0-0-3----------o||-0-0-0-0-3----------||
||--0-0-0-0-4-0--------|-0-0-0-0-4-0-0-1-4---||-0-0-0-0-4-0-0-1-4--||

 Section I
  N.C.
  Gtrs I, II
  PM----|           PM----|
|-----------------|--------------------|
|-----------------|--------------------|
|-----------------|--------------------|
|-----------------|--------------------|
|-0-0-0-0-3-------|-0-0-0-0-3----------|
|-0-0-0-0-4-0-----|-0-0-0-0-4-0-0-1-4--|


  PM----|           PM----|
|-----------------|---------------------||
|-----------------|---------------------||
|-----------------|---------------------||
|-----------------|---------------------||
|-0-0-0-0-3-------|-0-0-0-0-3-----------||
|-0-0-0-0-4-0-----|-0-0-0-0-4-0-0-1-4---||


   Section J
    N.C.
    Gtr I
    PM----|           PM----|
||------------------|--------------------|
||o-----------------|--------------------|
||------------------|--------------------|
||------------------|--------------------|
||o-0-0-0-0-3-------|-0-0-0-0-3----------|
||--0-0-0-0-4-0-----|-0-0-0-0-4-0-0-1-4--|
|
|   Gtr II
|   PM----|           PM----|
||------------------|--------------------|
||o-----------------|--------------------|
||------------------|--------------------|
||------------------|--------------------|
||o-0-0-0-0-3-------|-0-0-0-0-3----------|
||--0-0-0-0-4-0-----|-0-0-0-0-4-0-0-1-4--|


       PM--------|        PM--------|
|------------------|--------------------||
|------------------|-<7>---------------o||
|-<5>--------------|--------------------||
|------------------|--------------------||
|------0-0-0-0-0-0-|------0-0-0-0-0-0--o||
|------0-0-0-0-0-0-|------0-0-0-0-0-0---||
|
|      PM--------|        PM--------|
|------------------|--------------------||
|-<7>--------------|-<7>---------------o||
|------------------|--------------------||
|------------------|--------------------||
|------0-0-0-0-0-0-|------0-0-0-0-0-0--o||
|------0-0-0-0-0-0-|------0-0-0-0-0-0---||


       PM--------|        PM--------|
|------------------|------------------|-----||
|------------------|------------------|-----||
|-<5>--------------|-<5>--------------|-----||
|------------------|------------------|-----||
|------0-0-0-0-0-0-|------0-0-0-0-0-0-|-----||
|------0-0-0-0-0-0-|------0-0-0-0-0-0-|-----||
|
|      PM--------|        PM--------|
|------------------|------------------|-----||
|-<7>--------------|-<7>--------------|-----||
|------------------|------------------|-----||
|------------------|------------------|-----||
|------0-0-0-0-0-0-|------0-0-0-0-0-0-|-----||
|------0-0-0-0-0-0-|------0-0-0-0-0-0-|-----||


   Section K
                   1.,2.,3.                  4.
    N.C.                             D5
    Gtr I
||----------------|------------------------||---------------||
||o---------------|-----------------------o||---------------||
||----------------|------------------------||----<5>-<5>----||
||----------------|------------------------||---------------||
||o---------------|-----------------------o||---------------||
||----------------|------------------------||---------------||
|
|   Gtr II
||----------------|------------------------||---------------||
||o---------------|-----------------------o||----<7>-<7>----||
||-----------<5>--|------------------------||---------------||
||----------------|------------------------||---------------||
||o-0--3--5-------|-3-(3)s5--3-(3)s5-0--0-o||---------------||
||--0--4--6-------|-4-(4)s6--4-(4)s6-0--0--||---------------||


  Q=190
  Gtr I
    PM|   PM|   PM|                PM        PM|   PM|
|------------------------|-----------------------------|
|------------------------|-----------------------------|
|-------------------<5>--|-----------------------------|
|------------------------|-----------------------------|
|-0-0-0-3-0-0-5-0-0------|-3-(3)s5-0-3-(3)s5-0-0-0-0-0-|
|-0-0-0-4-0-0-6-0-0------|-4-(4)s6-0-4-(4)s6-0-0-0-0-0-|
|
| Gtr II
|   PM|   PM|   PM|                PM        PM|   PM|
|------------------------|-----------------------------|
|-------------------<7>--|-----------------------------|
|------------------------|-----------------------------|
|------------------------|-----------------------------|
|-0-0-0-3-0-0-5-0-0------|-3-(3)s5-0-3-(3)s5-0-0-0-0-0-|
|-0-0-0-4-0-0-6-0-0------|-4-(4)s6-0-4-(4)s6-0-0-0-0-0-|


    PM|   PM|   PM|                PM        PM|   PM|
|------------------------|------------------------------|
|------------------------|------------------------------|
|-------------------<5>--|------------------------------|
|------------------------|------------------------------|
|-0-0-0-3-0-0-5-0-0------|-3-(3)s5-0-3-(3)s5-0-0-0-0-0--|
|-0-0-0-4-0-0-6-0-0------|-4-(4)s6-0-4-(4)s6-0-0-0-0-0--|
|
|   PM|   PM|   PM|                PM        PM|   PM|
|------------------------|------------------------------|
|-------------------<7>--|------------------------------|
|------------------------|------------------------------|
|------------------------|------------------------------|
|-0-0-0-3-0-0-5-0-0------|-3-(3)s5-0-3-(3)s5-0-0-0-0-0--|
|-0-0-0-4-0-0-6-0-0------|-4-(4)s6-0-4-(4)s6-0-0-0-0-0--|


    PM|   PM|   PM|                PM        PM|   PM|
|------------------------|-----------------------------|
|------------------------|-----------------------------|
|-------------------<5>--|-----------------------------|
|------------------------|-----------------------------|
|-0-0-0-3-0-0-5-0-0------|-3-(3)s5-0-3-(3)s5-0-0-0-0-0-|
|-0-0-0-4-0-0-6-0-0------|-4-(4)s6-0-4-(4)s6-0-0-0-0-0-|
|
|   PM|   PM|   PM|                PM        PM|   PM|
|------------------------|-----------------------------|
|-------------------<7>--|-----------------------------|
|------------------------|-----------------------------|
|------------------------|-----------------------------|
|-0-0-0-3-0-0-5-0-0------|-3-(3)s5-0-3-(3)s5-0-0-0-0-0-|
|-0-0-0-4-0-0-6-0-0------|-4-(4)s6-0-4-(4)s6-0-0-0-0-0-|


    PM|   PM|   PM|                PM        PM--|
|------------------------|-------------------------||
|------------------------|-------------------------||
|-------------------<5>--|-------------------------||
|------------------------|-------------------------||
|-0-0-0-3-0-0-5-0-0------|-3-(3)s5-0-3-(3)s5-0-0-0-||
|-0-0-0-4-0-0-6-0-0------|-4-(4)s6-0-4-(4)s6-0-0-0-||
|
|   PM|   PM|   PM|                PM        PM--|
|------------------------|-------------------------||
|-------------------<7>--|-------------------------||
|------------------------|-------------------------||
|------------------------|-------------------------||
|-0-0-0-3-0-0-5-0-0------|-3-(3)s5-0-3-(3)s5-0-0-0-||
|-0-0-0-4-0-0-6-0-0------|-4-(4)s6-0-4-(4)s6-0-0-0-||


 Section L
  N.C.
  Gtrs I, II
|-----------------|-----------------|
|-----------------|-----------------|
|-6-6-6-6-6-6-6-6-|-6-6-6-6-6-6-6-6-|
|-----------------|-----------------|
|-4-4-4-4-4-4-4-4-|-4-4-4-4-4-4-4-4-|
|-----------------|-----------------|


                              PM----|
||------------------|--------------------|-----------------|--------------||
||o-----------------|--------------------|-----------------|-------------o||
||--6-6-6-6-6-6-6-6-|-6-6-6-6------------|-6-6-6-6-6-6-6-6-|--------------||
||------------------|--------------------|-----------------|--------------||
||o-4-4-4-4-4-4-4-4-|-4-4-4-4-0-0-0-0-3--|-4-4-4-4-4-4-4-4-|-------------o||
||------------------|---------0-0-0-0-4--|-----------------|-0-1-4--0-1-4-||

||-----------------|----------------|----------------||
||o----------------|----------------|---------------o||
||--6-6-6-6-6--6-6-|-6-6-6--6-6-6-6-|-6--6-6-6-6-6---||
||-----------------|----------------|----------------||
||o-4-4-4-4-4--4-4-|-4-4-4--4-4-4-4-|-4--4-4-4-4-4--o||
||-----------------|----------------|----------------||


   Section M
    N.C.            F#b5         N.C.
||---------------|-------------|--------------|-------------|
||o--------------|-------------|--------------|-------------|
||--6-6-6-6-6----|--5-5--5-5---|-6-6-6-6-6----|-------------|
||---------------|--4-4--4-4---|--------------|-------------|
||o-4-4-4-4-4----|--3-3--3-3---|-4-4-4-4-4----|-------------|
||---------------|-------------|--------------|-----0-1-4---|


  N.C.            F#b5         N.C.
|--------------|-------------|--------------|----------------||
|--------------|-------------|--------------|---------------o||
|-6-6-6-6-6----|--5-5--5-5---|-6-6-6-6-6----|----------------||
|--------------|--4-4--4-4---|--------------|----------------||
|-4-4-4-4-4----|--3-3--3-3---|-4-4-4-4-4----|---------------o||
|--------------|-------------|--------------|-0-1-4--0-1-4---||


|----------------|----------------|---------------*|
|----------------|----------------|---------------*|
|-6-6-6-6-6--6-6-|-6-6-6--6-6-6-6-|-6--6-6-6-6-6--*|
|----------------|----------------|---------------*|
|-4-4-4-4-4--4-4-|-4-4-4--4-4-4-4-|-4--4-4-4-4-4--*|
|----------------|----------------|---------------*|




--------------------------------------------------------------------------------


Tablature Legend
----------------
 h   - hammer-on
 p   - pull-off
 b   - bend
 pb  - pre-bend
 r   - bend release (if no number after the r, then release immediately)
 /\  - slide into or out of (from/to "nowhere")
 s   - legato slide
 S   - shift slide
 - natural harmonic
[n]  - artificial harmonic
n(n) - tapped harmonic
 ~   - vibrato
 tr  - trill
 T   - tap
 TP  - trem. picking
 PM  - palm muting
\n/  - tremolo bar dip; n = amount to dip
 \n  - tremolo bar down
 n/  - tremolo bar up
/n\  - tremolo bar inverted dip
 =   - hold bend; also acts as connecting device for hammers/pulls
 <> - volume swell (louder/softer)
 x   - on rhythm slash represents muted slash
 o   - on rhythm slash represents single note slash

Misc Legend
-----------
 |  - bar
||  - double bar
||o - repeat start
o|| - repeat end
*|  - double bar (ending)
 :  - bar (freetime)
 $  - Segno
 &  - Coda
Tempo markers -  = BPM(8/16=s8/s16), where s8 = swing 8ths, s16 = swing 16ths

            
            
Suggest correction
Creating personal tab
Creating personal tab
You can edit any tab online and save it as your Personal.

You can edit, replace or remove any tab part or add personal notes – all changes will be seen only by you.

Personal tabs can be accessed anytime from any device, even offline.
Learn more »
comments
print report bad tab
2 comments total.
0 reply
Hangar_18 616 May 18, 2006 09:01 PM

I agree with you dude, this tab is flawless

0 reply
forever_abandon 20 May 15, 2007 02:04 PM

agreed.
nice tab.

guest
You may want to rate the tab now too:
select rating
Wanna post a correction for this tab? Suggest correction