Oops, an error
Loading. Please wait.

New Black bass

version 1
version 1

Whole song

Interactive

6,025 views 1 this week
2 commentsread comments
1 2 3 4 5
x 3
add to favorites
×
Save as Personal and add changes to this tab that will be seen only by you. Learn more ›
×
You can save this tab as Personal to edit and correct it or add notes. All changes will be seen only by you. Learn more »
launch autoscroll
font size
0
reset
guitar tuner
edit
Autoscroll
slow
fast
+/-
esc
set tempo
stop
0:13
G|------------------------------------------|
D|------------------------------------------|
A|--------------2-------------2------2------|
D|02h5502x2-2x20--5-0-2x2-2x20--5-2-0--5-2--|

G|------------------------------------------|
D|------------------------------------------|
A|--------------2-------------2------2------|
D|02h5502x2-2x20--5-0-2x2-2x20--5-2-0--5-2--|

G|----------------------------------------------------------------------|
D|----------------------------------------------------------------------|
A|--------------2---------------2------2-----------2------2-------------|
D|02h5502x2-2x20--5-0---2x2-2x20--5-2-0--5-2-02h550--5-2-0--5-2-02h550--|


0:40
G|-------------------------------------------|
D|-------------------------------------------|
A|-------------------------------------------|
D|2-2--------------------2-2----------2h550--|x2


0:53
G|-------------------------------------------|
D|---------2---------------------------------|
A|----0h2h5--5-2-2-25202---------------------|
D|2-2-------------------52-2--250-0-x-2h550--|x4


1:20
G|--------------------------------------------|
D|--------------------------------------------|
A|--------------------------------------------|
D|2-2--------------------2x2------------------|x2


2:32
G|--------------------------------|
D|--------------------------------|
A|--------------------------------|
D|2-2------202------202------2-2--|


1:38
G|-----------------------------------------------------------------|
D|----------------------------------------------------------2------|
A|2-2222222222222222222222222222----------------------1---2---2----|
D|-------------------------------5-55555555555555-2-5---5-------5--|

G|-----------------------------------------------------------------|
D|----------------------------------------------------------2------|
A|2-2222222222222222222222222222----------------------1---2---2----|
D|-------------------------------5-55555555555555-2-5---5-------5--|

2:04
G|--------------------------------------------------------------------------|
D|--------------------------------------------------------------------------|
A|2-------------------------------------------------------------------------|
D|--5-2---2x2-2x20-------2x2-2x20--------------2h5502x2-2x20-------2x2-2x20-|

G|-----------------------------------------|
D|-----------------------------------------|
A|-------------------2------2--------------|
D|--------------2h550--5-2-0--5-2-0-2h550--|


2:26
G|--------------------------------------------|
D|---------2----------------------------------|
A|----0h2h5--5-2-2-25202----------------------|
D|2-2-------------------52-2--250-0-x-2h55-0--|

G|--------------------------------------------|
D|---------2----------------------------------|
A|----0h2h5--5-2-2-25202----------------------|
D|2-2-------------------52-2--250-0-x-2h55-0--|

2:40
G|-----------------------------------------------|
D|-----------------------------------------------|
A|-----------------------------------------------|
D|2x2x2------2x2x2------2x2---2x2---2x2---2-2-2--|

            
            
Suggest correction
Creating personal tab
Creating personal tab
You can edit any tab online and save it as your Personal.

You can edit, replace or remove any tab part or add personal notes – all changes will be seen only by you.

Personal tabs can be accessed anytime from any device, even offline.
Learn more »
Give kudos to tab author, rate the tab!
1 2 3 4 5
comments
print report bad tab
2 comments total.
+1 reply
Bassman454 31 Feb 12, 2008 02:45 PM

ummmm sorry but this is not novice

0 reply
Arlin 166 Oct 29, 2008 08:46 AM

Maybe not novice, but still pretty good!

guest
You may want to rate the tab now too:
select rating
Wanna post a correction for this tab? Suggest correction