Oops, an error
Loading. Please wait.

Skin Without Bones tab

163 views 3 this week
no commentswrite comment
1 2 3 4 5
2 more votes to show rating
add to favorites
×
Save as Personal and add changes to this tab that will be seen only by you. Learn more ›
×
You can save this tab as Personal to edit and correct it or add notes. All changes will be seen only by you. Learn more »
launch autoscroll
font size
0
reset
how to read this tab
guitar tuner
edit
Autoscroll
slow
fast
+/-
esc
set tempo
stop
[Intro] Both GTRs:
E|------------------|----------------------|------------------|----------------------|
B|------------------|----------------------|------------------|----------------------|
G|------------------|----------------------|------------------|----------------------|
D|-8----------7-5-5-|-8------------7p0-5-5-|-8----------7-5-5-|-8------------7p0-5-5-|
A|-8----10----7-5-5-|-8----10----------5-5-|-8----10----7-5-5-|-8----10----------5-5-|
D|-8----------7-5-5-|-8----------7-----5-5-|-8----------7-5-5-|-8----------7-----5-5-|

E|------------------|----------------------|------------------|----------------------|
B|------------------|----------------------|------------------|----------------------|
G|------------------|----------------------|------------------|----------------------|
D|-8----------7-5-5-|-8------------7p0-5-5-|-8----------7-5-5-|-8------------7p0-5-5-|
A|-8----10----7-5-5-|-8----10----------5-5-|-8----10----7-5-5-|-8----10----------5-5-|
D|-8----------7-5-5-|-8----------7-----5-5-|-8----------7-5-5-|-8----------7-----5-5-|

[Bridge] Both GTRs:
E|-0----------|------------|------------|---------------------------|
B|-0----------|------------|------------|---------------------------|
G|-0----------|------------|------------|----------------------7----|
D|-0----------|------------|------------|----------------------6----|
A|------------|------------|------------|----3----6----0-0-0-0-5----|
D|------------|------------|------------|----3----6----0-0-0-0------|
                                                       . . . .
[Verse] Both GTRS:
E|------------------|------------------|------------------|------------------|
B|------------------|------------------|------------------|------------------|
G|------------------|------------------|------------------|------------------|
D|------------------|------------------|------------------|------------------|
A|-----8---10-------|---10-------------|-----8---10-------|---10-------------|
D|-3/6---6----6-0-5/|-6----6-0-3-5-6-0-|-3/6---6----6-0-5/|-6----6-0-3-5-6-0-|


E|------------------|------------------|------------------|------------------|
B|------------------|------------------|------------------|------------------|
G|------------------|------------------|------------------|------------------|
D|------------------|------------------|------------------|------------------|
A|-----8---10-------|---10-------------|-----8---10-------|---10-------------|
D|-3/6---6----6-0-5/|-6----6-0-3-5-6-0-|-3/6---6----6-0-5/|-6----6-0-3-5-6-0-|

[Pre-Chorus] GTR01:
E|----------------------|-------------------------|----------------------|-------------------------|
B|----------------------|-------------------------|----------------------|-------------------------|
G|----------------------|-------------------------|----------------------|-------------------------|
D|-10----------12-10-10-|-13----------12-12-10-10-|-13----------12-10-10-|-13----------12-12-10-10-|
A|-10----15----12-10-10-|-------15----12-12-10-10-|-------15----12-10-10-|-------15----12-12-10-10-|
D|----------------------|-------------------------|----------------------|-------------------------|

[Pre-Chorus] GTR02:
E|----------------------|-------------------------|----------------------|-------------------------|
B|----------------------|-------------------------|----------------------|-------------------------|
G|----------------------|-------------------------|----------------------|-------------------------|
D|-10-------------10-10-|-------------------10-10-|----------------10-10-|-------------------10-10-|
A|-10-------------10-10-|-------------------10-10-|----------------10-10-|-------------------10-10-|
D|-10-------------10-10-|-------------------10-10-|----------------10-10-|-------------------10-10-|

[Chorus] Both GTRs:
E|----------------------|----------------------|----------------------|----------------------|
B|----------------------|----------------------|----------------------|----------------------|
G|----------------------|----------------------|----------------------|----------------------|
D|-13----------12-10-10-|-13----------12-10-10-|-13----------12-10-10-|-13----------12-10-10-|
A|-13----15----12-10-10-|-13----15----12-10-10-|-13----17----12-10-10-|-13----17----12-10-10-|
D|-13----------12-10-10-|-13----------12-10-10-|-13----------12-10-10-|-13----------12-10-10-|

E|----------------------|----------------------|----------------------|----------------------|
B|----------------------|----------------------|----------------------|----------------------|
G|----------------------|----------------------|----------------------|----------------------|
D|-13----------12-10-10-|-13----------12-10-10-|-13----------12-10-10-|-13----------12-10-10-|
A|-13----15----12-10-10-|-13----15----12-10-10-|-13----17----12-10-10-|-13----17----12-10-10-|
D|-13----------12-10-10-|-13----------12-10-10-|-13----------12-10-10-|-13----------12-10-10-|

[Bridge 2] Both GTRs:
E|-0----------|------------|------------|---------------------------|
B|-0----------|------------|------------|---------------------------|
G|-0----------|------------|------------|----------------------7----|
D|-0----------|------------|------------|----------------------6----|
A|------------|------------|------------|----8---------0-0-0-0-5----|
D|------------|------------|------------|---------6----0-0-0-0------|
                                                       . . . .
[Breakdown] Both Gtrs:
E|--------------------------|--------------------------|--------------------------|--------------------------|
B|--------------------------|--------------------------|--------------------------|--------------------------|
G|--------------------------|--------------------------|--------------------------|--------------------------|
D|--------------------------|--------------------------|-----3---3------------3---|-----3---3------------3---|
A|-----6---6------------6---|-----6---6----------------|--------------------------|--------------------------|
D|-1/4---4---4----0-1/4---4-|-1/4---4---4----0-1-3-4-0-|-3/4---4---4----0-3/4---4-|-3/4---4---4----0-3/4---4-|

E|--------------------------|--------------------------|--------------------------|--------------------------|
B|--------------------------|--------------------------|--------------------------|--------------------------|
G|--------------------------|--------------------------|--------------------------|--------------------------|
D|--------------------------|--------------------------|-----3---3------------3---|-----3---3------------3---|
A|-----6---6------------6---|-----6---6----------------|--------------------------|--------------------------|
D|-1/4---4---4----0-1/4---4-|-1/4---4---4----0-1-3-4-0-|-3/4---4---4----0-3/4---4-|-3/4---4---4----0-3/4---4-|

[Interlude 1] Both GTRs:
E|------------------|------------------|------------------|------------------|
B|------------------|------------------|------------------|------------------|
G|------------------|------------------|------------------|------------------|
D|-8----------7-5-5-|-8----------7-5-5-|-8----------7-5-5-|-8----------7-5-5-|
A|-8----10----7-5-5-|-8----10----7-5-5-|-8----12----7-5-5-|-8----12----7-5-5-|
D|-8----------7-5-5-|-8----------7-5-5-|-8----------7-5-5-|-8----------7-5-5-|

E|------------------|------------------|------------------|------------------|-------------|
B|------------------|------------------|------------------|------------------|-------------|
G|------------------|------------------|------------------|------------------|-------------|
D|-8----------7-5-5-|-8----------7-5-5-|-8----------7-5-5-|-8----------7-5-5-|-------------|
A|-8----10----7-5-5-|-8----10----7-5-5-|-8----12----7-5-5-|-8----12----7-5-5-|-15----------|
D|-8----------7-5-5-|-8----------7-5-5-|-8----------7-5-5-|-8----------7-5-5-|-------13----|

[Interlude 2] Both GTrs:
E|-----------------------------------|-----------------------------------|----------------0-|
B|-----------------------------------|-----------------------------------|----------------0-|
G|-----------------------------------|-----------------------------------|----------------0-|
D|-------10----10------------10------|-------10----10------------10------|-0-1-3-4----1-3-0-|
A|-----------------------------------|-----------------------------------|-0-1-3-4----1-3---|
D|-10/11----11----11-0-10/11----11-0-|-10/11----11----11-0-10/11----11-0-|-0-1-3-4----1-3---|

E|-----------------------------------|-----------------------------------|----------------0-|
B|-----------------------------------|-----------------------------------|----------------0-|
G|-----------------------------------|-----------------------------------|----------------0-|
D|-------10----10------------10------|-------10----10------------10------|-0-1-3-4----1-3-0-|
A|-----------------------------------|-----------------------------------|-0-1-3-4----1-3---|
D|-10/11----11----11-0-10/11----11-0-|-10/11----11----11-0-10/11----11-0-|-0-1-3-4----1-3---|

E|------------------0-|--------------------|-------0-------------|-------0-----------|----------------------|
B|------------------0-|--------------------|-------0-------------|-------0-----------|----------------------|
G|------------------0-|--------------------|-------0-------------|-------0-----------|----------------------|
D|------------1-3-4-0-|------------0-1-3-4-|---1-3-0-----1-3-4-0-|-1-3-4-0-----------|----1-3-4-0-----------|
A|------------1-3-4---|------------0-1-3-4-|---1-3-------1-3-4-0-|-1-3-4-------------|----1-3-4-0-8---------|
D|------------1-3-4---|------------0-1-3-4-|---1-3-------1-3-4-0-|-1-3-4-------------|----1-3-4-0------6----|

E|------------------0-|--------------------|-------0-------------|-------0-----------|----------------------|
B|------------------0-|--------------------|-------0-------------|-------0-----------|----------------------|
G|------------------0-|--------------------|-------0-------------|-------0-----------|----------------------|
D|------------1-3-4-0-|------------0-1-3-4-|---1-3-0-----1-3-4-0-|-1-3-4-0-----------|----1-3-4-0-----------|
A|------------1-3-4---|------------0-1-3-4-|---1-3-------1-3-4-0-|-1-3-4-------------|----1-3-4-0-8---------|
D|------------1-3-4---|------------0-1-3-4-|---1-3-------1-3-4-0-|-1-3-4-------------|----1-3-4-0------6----|

[Mosh-part] Both Gtrs:
E|----------------------------------|---------------------------------|--------0----------|
B|----------------------------------|---------------------------------|--------0----------|
G|----------------------------------|---------------------------------|--------0----------|
D|----------------------------------|-------------------------0-1-3-4-|----1-3-0----------|
A|-1-4-6-4-8-4-0-3-4-8-4-0----------|-1-4-6-4-8-4-0-3-4-8-4-0-0-1-3-4-|----1-3------------|
D|-1/4---4---4-0-3/4---4-0----------|-1/4---4---4-0-3/4---4-0-0-1-3-4-|----1-3------------|

E|----------------------------|---------------------------|
B|----------------------------|---------------------------|
G|----------------------------|---------------------------|
D|-1-3-4-0-1-3-4-0------------|---------------------------|
A|-1-3-4-0-1-3-4-0----1-4-6-4-|-8-4-0-3-4-8-4-0-8---------|
D|-1-3-4-0-1-3-4-0----1/4---4-|---4-0-3/4---4-0------6----|
                                                     *

************************************

| p  Pull-off
| /  Slide up
| .  Palm Mute
| *  Pinch-harmonic

************************************

            
            
Suggest correction
Creating personal tab
Creating personal tab
You can edit any tab online and save it as your Personal.

You can edit, replace or remove any tab part or add personal notes – all changes will be seen only by you.

Personal tabs can be accessed anytime from any device, even offline.
Learn more »
Give kudos to tab author, rate the tab!
1 2 3 4 5
comments
print report bad tab
guest
You may want to rate the tab now too:
select rating
Wanna post a correction for this tab? Suggest correction