Oops, an error
Loading. Please wait.

Bar Fightz Disco Lightz bass

186 views 1 this week
no commentswrite comment
1 2 3 4 5
3 more votes to show rating
add to favorites
×
Save as Personal and add changes to this tab that will be seen only by you. Learn more ›
×
You can save this tab as Personal to edit and correct it or add notes. All changes will be seen only by you. Learn more »
launch autoscroll
font size
0
reset
guitar tuner
edit
Autoscroll
slow
fast
+/-
esc
set tempo
stop
Another bass tab by me! LOL anyways again another really easy but pretty catchy song by EDIU :)

Tuning: Drop C#
F#
C#
G#
C#

Intro: (Don't play in the beginning with the synth part.)
F#--------------------------|
C#--------------------------|
G#-------3(16x)-------------|
C#-3(16x)------7(16x)-5(16--|x)

Verse:(Bass doesn't play in any of the verses just saying.)

Chorus:
F#--------------------------|
C#--------------------------|
G#-------3(16x)-------------|
C#-3(16x)------7(16x)-5(16--|x)

After Chorus:
F#--------------------------------------------------------------------------|
C#--------------------------------------------------------------------------|
G#-------------------33333333-3-3-3(2x)-------------------------------------|
C#-33333333-3-3-3(2x)------------------77777777-7-7-7(2x)-55555555-5-5-5----|(2x)

And then you play this:
F#
C#
G#
C#-5(16x) (Thats the end of the after chorus.)

2nd Verse: (You don't play it obviously.)

Chorus:
F#--------------------------|
C#--------------------------|
G#-------3(16x)-------------|
C#-3(16x)------7(16x)-5(16--|x)

After Chorus:
F#--------------------------------------------------------------------------|
C#--------------------------------------------------------------------------|
G#-------------------33333333-3-3-3(2x)-------------------------------------|
C#-33333333-3-3-3(2x)------------------77777777-7-7-7(2x)-55555555-5-5-5----|(2x)

F#
C#
G#
C#-5(16x)-0~~~~(let it ring.)

Breakdown:
F#--------------------------------------------------------|
C#--------------------------------------------------------|
G#--------------------------------------------------------|
C#-0-0--000-0-0-0-00000000(3x)-1-1--111-1-1-1-11111111----|(2x)

Still Breakdown:
F#-------------------------|
C#-------------------------|
G#-------------------------|
C#-0-0--000-0-0-0-00000000-|


Chorus:
F#--------------------------|
C#--------------------------|
G#-------3(16x)-------------|
C#-3(16x)------7(16x)-5(16--|x)

And then you play the same chorus but on the 5th fret on the C its a little different:

F#----------------------------------------------|
C#----------------------------------------------|
G#-------3(16x)---------------------------------|
C#-3(16x)------7(16x)-5-5-5555-5-5---5-5---3~~~-|

END: I hope you liked this tab as well, not a difficult song at all :)

            
            
Suggest correction
Creating personal tab
Creating personal tab
You can edit any tab online and save it as your Personal.

You can edit, replace or remove any tab part or add personal notes – all changes will be seen only by you.

Personal tabs can be accessed anytime from any device, even offline.
Learn more »
Give kudos to tab author, rate the tab!
1 2 3 4 5
comments
print report bad tab
guest
Wanna post a correction for this tab? Suggest correction