Oops, an error
Loading. Please wait.

Path To Take tab

579 views 3 this week
4 commentsread comments
1 2 3 4 5
x 3
add to favorites
×
Save as Personal and add changes to this tab that will be seen only by you. Learn more ›
×
You can save this tab as Personal to edit and correct it or add notes. All changes will be seen only by you. Learn more »
launch autoscroll
font size
0
reset
how to read this tab
guitar tuner
edit
Autoscroll
slow
fast
+/-
esc
set tempo
stop
Author
*NOTE* This is updated from the incomplete tab submitted last week ;) hope you like the 
very very nearly) full version

Tuning:CGCFAD

D|-----------------------------------------------------------------|
A|-----------------------------------------------------------------|
F|-----------------------------------------------------------------|
C|-44--------------44--------------00--------------00--------------|
G|-44--------------44--------------00--------------00--------------|
C|-44--------------44--------------00--------------00--------------|
Fly                Crash and burn  Eventual fade is none of my concern
Lie                Hurt yourself   I won't degrade my soul by hating you
D|-------------------------------------------------------------|
A|-------------------------------------------------------------|
F|---6---------------6---------------7---------------6-------6-|
C|---7---------------6---------------7---------------7-------6-|
G|--4---------------4---------------0---------------0-------0--|
C|-4---------------4---------------0---------------0-------0---|


I                  will not permit influence on how I stand how I sit
Narrow             mindedness       Flippant insults thrown about in fear
D|-------------------------------------------------------------------------------------|
A|-------------------------------------------------------------------------------------|
F|-------------------------------------------------------------------------------------|
C|-4-44-44-44-44-4-4/6-66666-66-66666/77777777777777/(12)121212121212\(11)111111111111-|
G|-------------------------------------------------------------------------------------|
C|-------------------------------------------------------------------------------------|
And you and I realise that I'll be oming back and I'll be showing you what I mean
And I will be safe in this with you and I will set out a path to take
(chorus)
D|--------------------------------------------------------------------------------------|
A|--------------------------------------------------------------------------------------|
F|-6--6666----6--6-6--6--6--6666----6--6-6--6-7--7777----7--7-7--7-6--6666----6--6-6--6-|
C|-7--7777----7--7-7--7--6--6666----6--6-6--6-7--7777----7--7-7--7-7--7777----6--6-6--6-|
G|-4--4444----4--4-4--4--4--4444----4--4-4--4-0--0000----0--0-0--0-0--0000----0--0-0--0-|
C|-4--4444----4--4-4--4--4--4444----4--4-4--4-0--0000----0--0-0--0-0--0000----0--0-0--0-|

*second verse*
D|------------------------------------------------------------------------|
A|------------------------------------------------------------------------|
F|------------------------------------------------------------------------|
C|-------------------2----------------------------------2-----------------|
G|-----4---2h4p2---------4---2h4p2---------4---2h42---------4---2h4p2-----|
C|-4-4---4-------4-4---4---4-------4-4-4-4---4------4-4---4---4-------4-4-|
   . .   .       . .   .   .       . . . .   .      . .   .   .       . .
  ..graade          my       soul      soul    by       hating

D|-------------------------------------------------------------------------|
A|-------------------------------------------------------------------------|
F|-------------------------------------------------------------------------|
C|-------------------2-----------------------------------2-----------------|
G|-----4---2h4p2---------4---2h4p2---------4---2h4p2---------4---2h4p2-----|
C|-0-0---0-------0-0---0---0-------0-0-0-0---0-------0-0---0---0-------0-0-|
   . .   .       . .   .   .       . . . .   .       . .   .   .       . .
   you


THE Killer riff

D|-----------------------------------------------------------------|
A|-----------------------------------------------------------------|
F|-----------------------------------------------------------------|
C|-----------------------------------------------------------------|
G|-------0-1-4-2-1-------0-1-4-2-1-------0-1-4-2-1-------0-1-4-2-1-|
C|-0-1-3-----------0-1-3-----------0-1-3-----------0-1-3-----------|
*PALM MUTED for fly; crash burn*


I want to assure you I'm not less than 100% sure of this; if I wasn't; I wouldn't have 
it (notice the second and third lead guitar bits arn't in; if you can figure it out; 
respect; I'm aweful with figuring out tapping)

            
            
Suggest correction
Creating personal tab
Creating personal tab
You can edit any tab online and save it as your Personal.

You can edit, replace or remove any tab part or add personal notes – all changes will be seen only by you.

Personal tabs can be accessed anytime from any device, even offline.
Learn more »
Give kudos to tab author, rate the tab!
1 2 3 4 5
comments
print report bad tab
4 comments total. Showing first comments.
+2 reply
mickmars2 528 Jun 27, 2008 10:56 AM

very good tab, though i'd just like to correct the last riff...
|---------------------------------
|---------------------------------
|---------------------------------
|---------------------------------
|-------1-0-4-3-1-------0-1-4-3-1-
|-0-1-4-----------0-1-4-----------
just continue that, and then right before going
back into the chorus again do this.
|-----------0------------
|-----------0-(let ring)
|-----------0------------
|-4----4----0------------
|-4----4-----------------
|-4----4-----------------
but besides that your tab is 5 star!!!

0 reply
fatgleeson 70 Aug 25, 2013 12:47 PM

D|-------------------------------------------------------------------------|
A|-------------------------------------------------------------------------|
F|-------------------------------------------------------------------------|
C|-12-4-5-11-4-5-7-14-4-5-12-4-11-4-0-2-4----------------------------------|
G|-------------------------------------------------------------------------|
C|-------------------------------------------------------------------------|


This is the tapping part, the 2nd half of it was hard to make out but i think this is it

0 reply
fatgleeson 70 Aug 25, 2013 12:54 PM

Sorry that should be

C|-12-4-5-11-4-5-7-14-4-5-12-4-11-0-2-4----------------------------------|


The second-last 4 was a typo

guest
You may want to rate the tab now too:
select rating
Wanna post a correction for this tab? Suggest correction