Oops, an error
Loading. Please wait.

Softwatch bass

version 1
version 1

Whole song

Interactive

142 views 1 this week
no commentswrite comment
1 2 3 4 5
3 more votes to show rating
add to favorites
×
Save as Personal and add changes to this tab that will be seen only by you. Learn more ›
×
You can save this tab as Personal to edit and correct it or add notes. All changes will be seen only by you. Learn more »
launch autoscroll
font size
0
reset
guitar tuner
edit
Autoscroll
slow
fast
+/-
esc
set tempo
stop
Song:   Soft Watch
Band:   Exit Ten
Album:  This World They'll Drown
Tuning: Drop C

Tabbed by: benit13

It was fairly hard picking out the bass for this one.  Feedback would be appreciated!  
are also a few timing changes in the song, but there's nothing to worry about :)

Start in 12/8 timing

Intro:

F|--------------------------|--------------------------|
C|--------------------------|--------------------------|
G|-555555555555555555555555-|-555555555555555555555555-|
C|--------------------------|--------------------------|

F|--------------------------|--------------------------|
C|--------------------------|--------------------------|
G|--------------------------|--------------------------|
C|-333333333333333333333333-|-333333333333333333333333-|

F|--------------------------|--------------------------|
C|--------------------------|--------------------------|
G|-------------------555555-|-666666666666666666666666-|
C|-666666666666666666-------|--------------------------|

F|--------------------------|--------------------------|
C|--------------------------|--------------------------|
G|--------------------------|--------------------------|
C|-555555555555333333333333-|-111111111111-1-1-1-11-1-1|

Change to 8/8 timing on this note:

F|--------------------------|
C|--------------------------|
G|--------------------------|
C|-0*-----------------------|

Verse I:

F|-------------------------------|--------------------------------|
C|-------------------------------|--------------------------------|
G|-------------------------------|-----------------12p8--8--------|
C|-0---000-000-0-0-000-000-0-0-0-|-0---000-000-0-0-----12-12-10-8-| x4

F|-------------------------------|--------------------------------|
C|-------------------------------|--------------------------------|
G|-------------------------------|-------------------------333333-|
C|-0---000-000-000-000-000-333333|-0---000-000-000-000-000--------|

F|-------------------------------|--------------------------------|
C|-------------------------------|--------------------------------|
G|-------------------------------|-------------------------333----|
C|-0---000-000-000-000-000-333333|-0---000-000-000-000-000--------|

F|-------------------------------|--------------------------------|
C|-------------------------------|--------------------------------|
G|-------------------------------|-------------------------333333-|
C|---------000-000-000-000-333333|-0---000-000-000-000-000--------|

F|-------------------------------|--------------------------------|
C|-------------------------------|--------------------------------|
G|-------------------------------|-------------------------333333-|
C|-0---000-000-000-000-000-333333|-0---000-000-000-000-000--------|

Back to 12/8 timing on this note:

F|--------|
C|--------|
G|--------|
C|-0------|

Chorus:
F|------------------------------------|-------------------------------------|
C|------------------------------------|-------------------------------------|
G|------------------------------------|-------------------------------------|
C|-0--0--0--0--0--0--10-10-10-10-10-10|-8--8--8--8--8--8--7--7--7--7--7--7--| x2

F|-------------------------------------------------------------|
C|-------------------------------------------------------------|
G|-------------10-10-12-12-10-10--------------10-10-12-12-10-10|
C|-0---7---0---------------------10--10--10--------------------|

F|-------------------------------------------------------------|
C|-------------------------------------------------------------|
G|-------------10-10-12-12-10-10--------------10-10-12-12-10-10|
C|-8---8---8---------------------7---7---7---------------------|

F|------------------------------------|-------------------------------------|
C|------------------------------------|-------------------------------------|
G|------------------------------------|-------------------------------------|
C|-0--0--0--0--0--0--10-10-10-10-10-10|-8--8--8--8--8--8--7--7--7--7--7--7--|

Chorus ending I: Change to 8/8 timing

F|------------------------------------|
C|------------------------------------|
G|------------------------------------|
C|-8-----------------7-----7--7--7----|


Verse II:
F|-------------------------------|--------------------------------|
C|-------------------------------|--------------------------------|
G|-------------------------------|-------------------------333333-|
C|-0---000-000-000-000-000-333333|-0---000-000-000-000-000--------| x4

Back to 12/8 timing on this note:

F|--------|
C|--------|
G|--------|
C|-0------|

Repeat the chorus, then play:

Chorus ending II:

F|------------------------------------|-------------------------------------|
C|------------------------------------|-------------------------------------|
G|------------------------------------|-------------------------------------|
C|-8--8--8--8--8--8--8--8--8--10-10-10|-7--7--7--7--7--7--7--7--7--7--7--7--|x3

F|------------------------------------|-------------------------------------|
C|------------------------------------|-------------------------------------|
G|------------------------------------|-------------------------------------|
C|-8--8--8--8--8--8--8--8--8--10-10-10|-7--7--7--7--7--7--8--7--5--7--5--3--|

F|------------------------------------|
C|------------------------------------|
G|------------------------------------|
C|-0*---------------------------------|


Instrumental.  Rest until the bass kicks in on:

F|------------------------------------|
C|------------------------------------|
G|------------------------------------|
C|-0--------0--------5--7--0--5--8--7-| x4

F|------------------------------------|
C|------------------------------------|
G|------------------------------------|
C|-0--0--0--0--0--0--5--7--0--5--8--7-| x3

F|------------------------------------|
C|------------------------------------|
G|------------------------------------|
C|-0--0--0--0--0--0--0--0--0--0--0--0-|


Rest, then repeat the chorus.  Then play:

Outro:
F|------------------------------------|
C|------------------------------------|
G|------------------------------------|
C|-0--0--0--0--0--0--5--7--0--5--8--7-| x4

F|------------------------------------|
C|------------------------------------|
G|------------------------------------|
C|-0*---------------------------------|

            
            
Suggest correction
Creating personal tab
Creating personal tab
You can edit any tab online and save it as your Personal.

You can edit, replace or remove any tab part or add personal notes – all changes will be seen only by you.

Personal tabs can be accessed anytime from any device, even offline.
Learn more »
Give kudos to tab author, rate the tab!
1 2 3 4 5
comments
print report bad tab
guest
You may want to rate the tab now too:
select rating
Wanna post a correction for this tab? Suggest correction