Oops, an error
Loading. Please wait.

Riot Act intro tab

version 1
version 1

Intro

Interactive

by Exodus
7,418 views 1 this week
1 commentread comment
1 2 3 4 5
x 6
add to favorites
×
Save as Personal and add changes to this tab that will be seen only by you. Learn more ›
×
You can save this tab as Personal to edit and correct it or add notes. All changes will be seen only by you. Learn more »
launch autoscroll
font size
0
reset
how to read this tab
guitar tuner
edit
Autoscroll
slow
fast
+/-
esc
set tempo
stop
Author
Riot Act - Exodus                Tab - Swamplord
The Atrocity Exhibition
Track 2

I'm pretty sure this song's played one step down in D tuning.
I've tabbed up until the lyrics begin. Working on the rest.

           PM       PM       PM       PM  
     S S S S  S S S S  S S S S  S S S S   
D||--------------------------------------|
A||--------------------------------------|
F||--------------------------------------|
C||--------------------------------------|
G||-----------0-5-7-------------0-5-7----|
D||--0-3-5-0--------0--0-3-6-0--------0--|


        PM       PM       PM       PM          PM       PM       PM       PM  
  S S S S  S S S S  S S S S  S S S S     S S S S  S S S S  S S S S  S S S S   
--------------------------------------|--------------------------------------|
--------------------------------------|--------------------------------------|
--------------------------------------|--------------------------------------|
--------------------------------------|--------------------------------------|
-----------0-5-7-------------0-5-7----|-----------0-5-7-------------0-5-7----|
--0-3-5-0--------0--0-3-6-0--------0--|--0-3-5-0--------0--0-3-6-0--------0--|


        PM       PM       PM       PM                      
  S S S S  S S S S  S S S S  S S S S     W                 
--------------------------------------|-------------------|
--------------------------------------|-------------------|
--------------------------------------|-------------------|
--------------------------------------|--2----------------|
-----------0-5-7-------------0-5-7----|--2----------------|
--0-3-5-0--------0--0-3-6-0--------0--|--0----------------|


          PM       PM       PM       PM          PM       PM       PM       PM  
    S S S S  S S S S  S S S S  S S S S     S S S S  S S S S  S S S S  S S S S   
|---------------------------------------|--------------------------------------|
|---------------------------------------|--------------------------------------|
|*--------------------------------------|--------------------------------------|
|*--------------------------------------|--------------------------------------|
|------------0-5-7-------------0-5-7----|-----------0-5-7-------------0-5-7----|
|---0-3-5-0--------0--0-3-6-0--------0--|--0-3-5-0--------0--0-3-6-0--------0--|


        PM       PM       PM       PM  
  S S S S  S S S S  S S S S  S S S S   
--------------------------------------|
--------------------------------------|
--------------------------------------|
--------------------------------------|
-----------0-5-7-------------0-5-7----|
--0-3-5-0--------0--0-3-6-0--------0--|


  Drum fill in here second time around                                      
                                           PM       PM       PM       PM    
  S                                    S S S  S S S S  S S S S  S S S S     
--------------------------------------------------------------------------||
--------------------------------------------------------------------------||
-------------------------------------------------------------------------*||
-------------------------------------------------------------------------*||
----------------------------------------------0-5-7-------------0-5-7-----||
--0------------------------------------3-5-0--------0--0-3-6-0--------0---||


         PM       PM       PM       PM          PM       PM       PM       PM  
   S S S S  S S S S  S S S S  S S S S     S S S S  S S S S  S S S S  S S S S   
---------------------------------------|--------------------------------------|
---------------------------------------|--------------------------------------|
*--------------------------------------|--------------------------------------|
*--------------------------------------|--------------------------------------|
------------0-5-7-------------0-5-7----|-----------0-5-7-------------0-5-7----|
---0-3-5-0--------0--0-3-6-0--------0--|--0-3-5-0--------0--0-3-6-0--------0--|


        PM       PM       PM       PM          PM       PM       PM       PM    
  S S S S  S S S S  S S S S  S S S S     S S S S  S S S S  S S S S  S S S S     
--------------------------------------|---------------------------------------||
--------------------------------------|---------------------------------------||
--------------------------------------|--------------------------------------*||
--------------------------------------|--------------------------------------*||
-----------0-5-7-------------0-5-7----|-----------0-5-7-------------0-5-7-----||
--0-3-5-0--------0--0-3-6-0--------0--|--0-3-5-0--------0--0-3-6-0--------0---||


                                            PM       PM       PM       PM  
                          |--3--|                                          
  S S S S S S S S S S S S E  E  E     S S S S  S S S S  S S S S  S S S S   
-----------------------------------|--------------------------------------|
-----------------------------------|--------------------------------------|
-----------------------------------|--------------------------------------|
-----------------------------------|--------------------------------------|
----5-6-7---3-6-5---2-3-5----7--0--|--5-6-7----5-6-7----5-6-7----5-6-7----|
--0-5-6-7-0-3-6-5-0-2-3-5-0--7--0--|--5-6-7-0--5-6-7-0--5-6-7-0--5-6-7-0--|


        PM       PM       PM       PM          PM       PM       PM       PM  
  S S S S  S S S S  S S S S  S S S S     S S S S  S S S S  S S S S  S S S S   
--------------------------------------|--------------------------------------|
--------------------------------------|--------------------------------------|
--------------------------------------|--------------------------------------|
--------------------------------------|--------------------------------------|
--3-5-6----2-5-3----2-5-3----5-6-7----|--5-6-7----5-6-7----5-6-7----5-6-7----|
--3-5-6-0--2-5-3-0--2-5-3-0--5-6-7-0--|--5-6-7-0--5-6-7-0--5-6-7-0--5-6-7-0--|


        PM       PM       PM       PM   
  S S S S  S S S S  S S S S  S S S S    
--------------------------------------||
--------------------------------------||
--------------------------------------||
--------------------------------------||
--3-5-6----2-5-3----2-5-3----5-6-7----||
--3-5-6-0--2-5-3-0--2-5-3-0--5-6-7-0--||




Duration Legend
---------------
W - whole
Q - quarter
E - 8th
S - 16th
|-n-|  - n-tuplets


Tablature Legend
----------------
h - hammer on
p - pull off
b - bend

            
            
Suggest correction
Creating personal tab
Creating personal tab
You can edit any tab online and save it as your Personal.

You can edit, replace or remove any tab part or add personal notes – all changes will be seen only by you.

Personal tabs can be accessed anytime from any device, even offline.
Learn more »
comments
print report bad tab
1 comment total.
0 reply
motortallica 111 Feb 09, 2011 06:34 AM

great tab! the chorus has got some of this somewhere:
-------------------------
-------------------------
--7-9-9-9-12-12-12-9-9-9-
--7-9-9-9-12-12-12-9-9-9-
--5-7-7-7-10-10-10-7-7-7-
-------------------------

guest
You may want to rate the tab now too:
select rating
Wanna post a correction for this tab? Suggest correction