Oops, an error
Loading. Please wait.

Strike Of The Beast tab

version 1
version 1

Whole song

Interactive

by Exodus
27,042 views 9 this week
3 commentsread comments
1 2 3 4 5
x 6
add to favorites
×
Save as Personal and add changes to this tab that will be seen only by you. Learn more ›
×
You can save this tab as Personal to edit and correct it or add notes. All changes will be seen only by you. Learn more »
launch autoscroll
font size
0
reset
how to read this tab
guitar tuner
backing track
0:00
0:00
edit
Autoscroll
slow
fast
+/-
esc
set tempo
stop
Author
Unregistered
Artist: Exodus
Song: Strike of the Beast
(dudemcrude@yahoo.com)
Tuning: Standard

[Riff 1A]
   x3, then end                  end 1                 end 2
e|-------------------------|-------------------|------------------------|
B|-------------------------|-------------------|------------------------|
G|-------------------------|-----------------7-|------------------------|
D|------3p2---5p2---8s5-2--|-----3p2---5p2---7-|-----3p2---5p2---5------|
A|-------------------------|-----------------5-|-----------------5------|
E|--000-----0-----0--------|-000-----0-----0---|-000-----0-----0-3------|
    ...     .     .          ...     .     .     ...     .     . 

[Riff 1B]
e|---------------------------------------------------------------|
B|---------------------------------------------------------------|
G|---------------------------------------------------------------|
D|------3p2---5p2---8p5-2----------------------------------------|
A|---------------------------------------------------------------|
E|--000-----0-----0----------------------------------------------|

[Fig. 1]
e|---------------------------------------------------------------|
B|---------------------------------------------------------------|
G|---------------------------------------------------------------|
D|---------------------------------------------------------------|
A|----------------3-2-3---------------5-4-3----------------------|
E|--1111111111111-1-0-1-1111111111111-3-2-1----------------------|
    .............       .............

[Fig. 2]
(chorus)
e|---------------------------------------------------------------|
B|---------------------------------------------------------------|
G|--7----10--9----5----------------------------------------------|
D|--7----10--9----5----5-5-5-5-5-5-------------------------------|
A|--5-----8--7----3----3-3-3-3-3-3-------------------------------|
E|---------------------------------------------------------------|

[Riff 2]
e|-----------------------------------------------------------------------------|
B|-----------------------------------------------------------------------------|
G|-----------------------------------------------------------------------------|
D|---------8-7--------7-5------------------------------------------------------|
A|--000000-----000000-----000000000000000000-6-5-------------------------------|
E|-----------------------------------------------6-5-3333333333333333333-------|
    ......     ......     ..................         ...................

[Riff 2B]
e|------------------------------------------------------------------------------|
B|------------------------------------------------------------------------------|
G|------------------------------------------------------------------------------|
D|------------------------------------------------------------------------------|
A|--000000000000000000000000000000000000----------------------------------------|
E|---------------------------------------6-5-333333333333333333333333333--------|
    ....................................     ...........................

[Fig. 3]
e|---------------------------------------------------------------|
B|---------------------------------------------------------------|
G|---------------------------------------------------------------|
D|---------------------------------------------------------------|
A|---------------------------------------------------------------|
E|--11111111111111etc...-----------------------------------------|

[Riff 3]
e|------------------------------------------------------------------------------|
B|------------------------------------------------------------------------------|
G|------------------------------------------------------------------------------|
D|-----------------------------------------------------------4-5-4-5-4-5--------|
A|--222222222222222-5-4-------------------22222222222222-5-4-2-3-2-3-2-3--------|
E|----------------------111111111111111-----------------------------------------|
    ...............     ...............   ..............

[Riff 1C]
e|---------------------------------------------------------------|
B|---------------------------------------------------------------|
G|---------------------------------------------------------------|
D|---------------------------------------------------------------|
A|---------------------------------------------------------------|
E|--000-1p0-0-3p0-0-6p3p0----------------------------------------|

Play order:
Riff 1A x2
Fig. 1 x1
Riff 1B x4
Fig. 1 x1
Riff 1B x4
Fig. 2 x1
Riff 1A x1
Fig. 1 x1
Riff 1B x4
Fig. 1 x1
Riff 1B x4
Fig. 2 x1
Riff 1B x4
Fig. 2 x1
Riff 2 x4
Riff 2B x4
Play Fig. 3 for a while under solo
Play some E power chords 
Riff 3 x4
Fig. 1 x1
Riff 1C x4
Fig. 1 x1
Riff 1C x4
Fig. 2 x1
Riff 1B x4
Fig. 2 x1
Play some more E power chords

************************************

| p  Pull-off
| .  Staccato

************************************

            
            
Suggest correction
Creating personal tab
Creating personal tab
You can edit any tab online and save it as your Personal.

You can edit, replace or remove any tab part or add personal notes – all changes will be seen only by you.

Personal tabs can be accessed anytime from any device, even offline.
Learn more »
comments
print report bad tab
3 comments total.
0 reply
aahlstrom93 20 Jul 22, 2011 09:41 AM

Great tab, thanks!

The intro riff is hard and takes some time to get!

+1 reply
dcogbermu98 10 Apr 25, 2013 06:31 AM

the intro cuold be in another simple way yet same sound

x3, then end                  end 1                 end 2
e|-------------------------|-------------------|------------------------
B|-------------------------|-------------------|------------------------
G|-------------------------|-----------------7-|------------------------
D|------------------9p7----|-----------------7-|-----------------5------
A|------8p7---9p7----------|-----8p7---9p7---5-|-----8p7---9p7---5------
E|--000-----0-----0--------|-000-----0-----0---|-000-----0-----0-3------
... . . ... . . ... . .

0 reply
slayer1587 20 May 31, 2013 06:23 PM

Good tab, personally though I find the intro easier to play this way
x3, then end end 1 end 2
e|-------------------------|-------------------|------------------------
B|-------------------------|-------------------|------------------------
G|-------------------------|-----------------7-|------------------------
D|------------------8------|-----------------7-|-----------------5------
A|-----8p7---10p7-----10p7|-----8p7---10p7---5-|-----8p7---10p7--5------
E|--000-----0-----0--------|-000-----0-----0---|-000-----0-----0-3------

guest
Wanna post a correction for this tab? Suggest correction