Oops, an error
Loading. Please wait.

Toxic Waltz bass

version 1
version 1

Whole song

Interactive

by Exodus
2,549 views 9 this week
1 commentread comment
1 2 3 4 5
x 3
add to favorites
×
Save as Personal and add changes to this tab that will be seen only by you. Learn more ›
×
You can save this tab as Personal to edit and correct it or add notes. All changes will be seen only by you. Learn more »
launch autoscroll
font size
0
reset
guitar tuner
edit
Autoscroll
slow
fast
+/-
esc
set tempo
stop
Bassist: Rob McKillop

Toxic Waltz was my second or third tab and the one that is most visited. I looked at it
the other day and saw it wasn't as correct as it should have been and of course I felt bad
that it was incorrect and so many were checking the tab and it was not right, so 
here's the correct version. I have 
been making the tab for two days--many hours in those two days--and know that it will be
more accurate than my first. You have to play the song in a certain style or it will not 
correct with anyone's tab so I suggest you listen to the song a couple times unless you 
listened to the song like a thousand times, haha.

Holds are pretty brief 'cause Exodus is thrash and thus pretty fast--even on bass. It is
repetitive too so I had to write a lot of the same lines several, several times.

Notation Legend:

~ means let the note ring, hold the note
h stands for hammer-on


============================================================================
                             Exodus: Toxic Waltz
============================================================================

E-55-0-33-0-11-00-11-00-|
A-----------------------|
D-----------------------|
G-----------------------|

E-55-0-33-0-11-00000000|
A----------------------|
D----------------------|
G----------------------|

E-55-0-33-0-11-00-11-00-|
A-----------------------|
D-----------------------|
G-----------------------|

E-55-0-33-0-11-00000000-|
A-----------------------|
D-----------------------|
G-----------------------|

E-55-0-33-0-11-00-11-00-|
A-----------------------|
D-----------------------|
G-----------------------|

E-55-0-33-0-11-0-00-33-0-5-4-0-3-1-|
A----------------------------------|
D----------------------------------|
G----------------------------------|

E-55-0-33-0-11-0-00-33-0-5-4-0-3-1-|
A----------------------------------|
D----------------------------------|
G----------------------------------|

E-55-0-33-0-11-0-00-33-0-5-4-0-3-1-|
A----------------------------------|
D----------------------------------|
G----------------------------------|

E-55-0-33-0-11-0-00-33-0-5-4-0-3-1-|
A----------------------------------|
D----------------------------------|
G----------------------------------|

PLAY FAST!!
E-0-3-2-1-0-3-2-1-0-3-2-1-1~2~3~|
A-------------------------------|
D-------------------------------|
G-------------------------------|

E-55-0-33-0-11-00-11-00-|
A-----------------------|
D-----------------------|
G-----------------------|

E-55-0-33-0-11-00000000|
A----------------------|
D----------------------|
G----------------------|

E-55-0-33-0-11-00-11-00-|
A-----------------------|
D-----------------------|
G-----------------------|

E-55-0-33-0-11-00000000|
A----------------------|
D----------------------|
G----------------------|

E-55-0-33-0-11-00-11-00-|
A-----------------------|
D-----------------------|
G-----------------------|

E-55-0-33-0-11-00000000|
A----------------------|
D----------------------|
G----------------------|

E-55-0-33-0-11-00-11-00-|
A-----------------------|
D-----------------------|
G-----------------------|

E-55-0-33-0-11-00000000|
A----------------------|
D----------------------|
G----------------------|

E-55-0-33-0-11-00-11-00-|
A-----------------------|
D-----------------------|
G-----------------------|

E-55-0-33-0-11-00000000|
A----------------------|
D----------------------|
G----------------------|

E-00-5-0-4-00-5-0-4-1-0-0000-1-0-h1-0|
A------------------------------------|
D------------------------------------|
G------------------------------------|

E-0-00-3-0-5-4-0-000-00-3-0-5-4-0-3-2|
A------------------------------------|
D------------------------------------|
G------------------------------------|

E-0-00-3-0-5-4-0-000-00-3-0-5-4-0-3-2|
A------------------------------------|
D------------------------------------|
G------------------------------------|

E-0-00-3-0-5-4-0-000-00-3-0-5-4-0-3-2|
A------------------------------------|
D------------------------------------|
G------------------------------------|

E-0-00-3-0-5-4-0-000-00-3-0-5-4-0-3-2|
A------------------------------------|
D------------------------------------|
G------------------------------------|

E-55-0-33-0-11-0-|
A----------------|
D----------------|
G----------------|

E-55-0-33-0-11-00-11-00-|
A-----------------------|
D-----------------------|
G-----------------------|

E-55-0-33-0-11-00000000|
A----------------------|
D----------------------|
G----------------------|

E-55-0-33-0-11-00-11-00-|
A-----------------------|
D-----------------------|
G-----------------------|

E-55-0-33-0-11-00000000|
A----------------------|
D----------------------|
G----------------------|

E-55-0-33-0-11-00-11-00-|
A-----------------------|
D-----------------------|
G-----------------------|

E-55-0-33-0-11-00000000|
A----------------------|
D----------------------|
G----------------------|

E-55-0-33-0-11-00-11-00-|
A-----------------------|
D-----------------------|
G-----------------------|

E-55-0-33-0-11-00000000|
A----------------------|
D----------------------|
G----------------------|

E-55-0-33-0-11-00-11-00-|
A-----------------------|
D-----------------------|
G-----------------------|

E-55-0-33-0-11-00000000|
A----------------------|
D----------------------|
G----------------------|

E-55-0-33-0-11-00-11-00-|
A-----------------------|
D-----------------------|
G-----------------------|

E-55-0-33-0-11-00000000|
A----------------------|
D----------------------|
G----------------------|

E-00-5-0-4-00-5-0-4-1-0-0000-1-0-h1-0|
A------------------------------------|
D------------------------------------|
G------------------------------------|

E-00-5-0-4-00-5-0-4-1-0-0000-1-0-h1-0|
A------------------------------------|
D------------------------------------|
G------------------------------------|

E-00-5-0-4-00-5-0-4-1-0-0000-1-0-h1-0|
A------------------------------------|
D------------------------------------|
G------------------------------------|

E-00-5-0-4-00-5-0-4-1-0-0000-1-0-h1-0|
A------------------------------------|
D------------------------------------|
G------------------------------------|

E-0-00-3-0-5-4-0-000-00-3-0-5-4-0-3-2|
A------------------------------------|
D------------------------------------|
G------------------------------------|

E-0-00-3-0-5-4-0-000-00-3-0-5-4-0-3-2|
A------------------------------------|
D------------------------------------|
G------------------------------------|

E-0-00-3-0-5-4-0-000-00-3-0-5-4-0-3-2|
A------------------------------------|
D------------------------------------|
G------------------------------------|

E-0-00-3-0-5-4-0-000-00-3-0-5-4-0-3-2|
A------------------------------------|
D------------------------------------|
G------------------------------------|

E-55-0-33-0-1-0-|
A---------------|
D---------------|
G---------------|

                  (Guitar Solo Begins)

E-000-3~0-1~000-3~0-1~000-3~0-1~000-3~0-1~000-3~0-1~000-3~01!|
A------------------------------------------------------------|
D------------------------------------------------------------|
G------------------------------------------------------------|

E-000-3~0-1~000-3~0-1~000-3~0-1~000-3~0-1~000-3~0-1~000-3~0-1~000-3~0-1~|
A-----------------------------------------------------------------------|
D-----------------------------------------------------------------------|
G-----------------------------------------------------------------------|

E-000-3~0-1~000-3~0-1~000-3~0-1~|
A-------------------------------|
D-------------------------------|
G-------------------------------|

E-33-0-5~0-4~33-0-4~0-6~33-0-5~0-4~33-0-4~0-6~33-0-5~0-4~33-0-4~0-6~|
A-------------------------------------------------------------------|
D-------------------------------------------------------------------|
G-------------------------------------------------------------------|

E-33-0-5~0-4~33-0-4~0-6~33-0-5~0-4~33-0-4~0-6~33-0-5~0-4~33-0-4~0-6~|
A-------------------------------------------------------------------|
D-------------------------------------------------------------------|
G-------------------------------------------------------------------|

E-33-0-5~0-4~33-0-4~0-6~|
A-----------------------|
D-----------------------|
G-----------------------|

E-----------|
A-000-3~0-1~|
D-----------|
G-----------|

E-----------|
A-000-3~0-1~|
D-----------|
G-----------|

E-----------|
A-000-3~0-1~|
D-----------|
G-----------|

E-----------|
A-000-3~0-1~|
D-----------|
G-----------|

E-7-8-9~9-5-0-6-6-000000|
A-----------------------|
D-----------------------|
G-----------------------|

E-7-8-9~9-5-0-6-000000|
A---------------------|
D---------------------|
G---------------------|

E-7-8-9~9-5-0-6-6-000000|
A-----------------------|
D-----------------------|
G-----------------------|

E-7-8-9~9-5-0-6-000000|
A---------------------|
D---------------------|
G---------------------|

E-7-8-9~9-5-0-6-6-000000|
A-----------------------|
D-----------------------|
G-----------------------|

E-7-8-9~9-5-0-6-000000|
A---------------------|
D---------------------|
G---------------------|

E-7-8-9~9-5-0-6-6-0-00000|
A------------------------|
D------------------------|
G------------------------|

E-7-8-9~9-5-0-6~| long hold on 6
A---------------|
D---------------|
G---------------|

E-6~7~8~6~777-0~777-0~00-5-55-66-0-00000000|
A------------------------------------------|
D------------------------------------------|
G------------------------------------------|

E-6~777-0~777-0~00-5-55-66-0-00000000|
A------------------------------------|
D------------------------------------|
G------------------------------------|

E-6~777-0~777-0~00-5-55-66-0-00000000|
A------------------------------------|
D------------------------------------|
G------------------------------------|

E-6~777-0~777-0~00-5-55-66-0-00000000|
A------------------------------------|
D------------------------------------|
G------------------------------------|

E-6~777-0~777-0~00-5-55-66-0-00000000|
A------------------------------------|
D------------------------------------|
G------------------------------------|


And there is the Toxic Waltz in its correct form. I've already said all holds are brief
it's a really repetitive song so you should know why the song "looks" so long. You don't
a lot of the later and simpler repeats cause of the guitar solo and the vox's voice can 
to catch your attention. Anyway, have fun with my "corrected" tab.

   ++ ARCLIGHT ++

            
            
Suggest correction
Creating personal tab
Creating personal tab
You can edit any tab online and save it as your Personal.

You can edit, replace or remove any tab part or add personal notes – all changes will be seen only by you.

Personal tabs can be accessed anytime from any device, even offline.
Learn more »
Give kudos to tab author, rate the tab!
1 2 3 4 5
comments
print report bad tab
1 comment total.
+1 reply
mace200200 236 Dec 08, 2010 04:57 PM

its upside down bone head

guest
You may want to rate the tab now too:
select rating
Wanna post a correction for this tab? Suggest correction