Oops, an error
Loading. Please wait.
We have an official Your Hand In Mine tab made by UG professional guitarists. Check out the tab »
×

Your Hand In Mine tab

342,214 views 159 this week
32 commentsread comments
1 2 3 4 5
x 109
add to favorites
×
Save as Personal and add changes to this tab that will be seen only by you. Learn more ›
×
You can save this tab as Personal to edit and correct it or add notes. All changes will be seen only by you. Learn more »
launch autoscroll
font size
0
reset
how to read this tab
guitar tuner
edit
Autoscroll
slow
fast
+/-
esc
set tempo
stop
Author
Artist: Explosions In The Sky
Song: Your Hand In Mine
Album: The Earth Is Not A Cold Dead Place


(All Guitars In Standard Tuning)


(MARK)

(0:00)-->(0:07) 
(Intro With Delay)
e|-11-12-14-------------------------------------------------------|
B|----------------------------------------------------------------|
G|----------------------------------------------------------------|
D|----------------------------------------------------------------|
A|----------------------------------------------------------------|
E|----------------------------------------------------------------|

(0:21)-->(1:14) 
(Play this riff until drums enter)
e|----------------------------------------------------------------|
B|-12-10-9-10-7-10-9-7-4h5-9--------------------------------------|
G|----------------------------------------------------------------|
D|----------------------------------------------------------------|
A|----------------------------------------------------------------|
E|----------------------------------------------------------------|

e|----------------------------------------------------------------|
B|-14-12-10-9-12-----9-7\2-2/5------------------------------------|
G|----------------------------------------------------------------|
D|----------------------------------------------------------------|
A|----------------------------------------------------------------|
E|----------------------------------------------------------------|

(1:14)-->(1:52) 
(Play this riff until drums stop*
e|-12-12-14-14-16-16-14-14-12-12-14-14---19-17-16-17-16-----------|
B|----------------------------------------------------------------|
G|----------------------------------------------------------------|
D|----------------------------------------------------------------|
A|----------------------------------------------------------------|
E|----------------------------------------------------------------|

e|-16-19-16-----16------------------------------------------------|
B|----------17--17------------------------------------------------|
G|----------------------------------------------------------------|
D|----------------------------------------------------------------|
A|----------------------------------------------------------------|
E|----------------------------------------------------------------|

(2:39)-->(3:28) 
(With Reverb+Echo)
e|----------------------------------------------------------------|
B|----------------------------------------------------------------|
G|-13-16-9-11---6-4-9-11------------------------------------------|
D|----------------------------------------------------------------|
A|----------------------------------------------------------------|
E|----------------------------------------------------------------|

(3:28)-->(4:15)
e|-------------------------------------12-11\7--------------------|
B|-9-9-9-9-9-9-10-12----------------------------------------------|
G|-------------------11-14-14-14-14-14----------------------------|
D|----------------------------------------------------------------|
A|----------------------------------------------------------------|
E|----------------------------------------------------------------|

(4:15)-->(5:04) 
(Note that tr7* and tr9* swap on the 2nd and 4th rounds of this riff)
e|-tr16-tr19-tr12-tr14-tr9-tr7-tr12-tr14--------------------------|
B|----------------------------------------------------------------|
G|----------------------------------------------------------------|
D|----------------------------------------------------------------|
A|----------------------------------------------------------------|
E|----------------------------------------------------------------|
                        *   *
e-tr16-tr19-tr12-tr14-tr7-tr9-tr12-tr14--------------------------|
B----------------------------------------------------------------|
G----------------------------------------------------------------|
D----------------------------------------------------------------|
A----------------------------------------------------------------|
E----------------------------------------------------------------|

(5:04)-->(5:41)
e|---------------12-12-12-12--------------------------------------|
B|----------------------------------------------------------------|
G|-9-9-9-9-9-etc-------------9-9-9-9-9-etc------------------------|
D|----------------------------------------------------------------|
A|----------------------------------------------------------------|
E|----------------------------------------------------------------|

(5:41)-->(6:06)
e|----14-------------19-16-19-16----------------------------------|
B|-17----17----------------------17-------------------------------|
G|----------------------------------------------------------------|
D|----------------------------------------------------------------|
A|----------------------------------------------------------------|
E|----------------------------------------------------------------|

e|-9-7-9----------------------------------------------------------|
B|-------10-10-9-10-9-10-9\5-5------------------------------------|
G|----------------------------------------------------------------|
D|----------------------------------------------------------------|
A|----------------------------------------------------------------|
E|----------------------------------------------------------------|

(6:06)-->(6:18)
e|----------------------------------------------------------------|
B|-12-12-12-10-9---12-12-12-10-9---12-12-10-9-9-10-12-------------|
G|----------------------------------------------------------------|
D|----------------------------------------------------------------|
A|----------------------------------------------------------------|
E|----------------------------------------------------------------|

(6:18)-->(6:29)
e|----------------------------------------------------------------|
B|-12-12-12-12-12----12-12-12-12-12----12-12-12-12-12\10\9-9------|
G|----------------------------------------------------------------|
D|----------------------------------------------------------------|
A|----------------------------------------------------------------|
E|----------------------------------------------------------------|

(6:43)-->(7:07)
e|----------------------------------------------------------------|
B|-12-12-12-12-12-12-12-12-12-12-12-12----------------------------|
G|-------------------------------------9-9------------------------|
D|----------------------------------------------------------------|
A|----------------------------------------------------------------|
E|----------------------------------------------------------------|

(7:07)-->(7:19)
e|----------------------------------------------------------------|
B|-12-12-12-10-9---12-12-12-10-9---12-12-10-9-9-10-12-------------|
G|----------------------------------------------------------------|
D|----------------------------------------------------------------|
A|----------------------------------------------------------------|
E|----------------------------------------------------------------|

(7:19)-->(7:43) 
(End on B12)
e|----------------------------------------------------------------|
B|-12-12-12-12-12----12-12-12-12-12----12-12-12-12-12\10\9-9-12---|
G|----------------------------------------------------------------|
D|----------------------------------------------------------------|
A|----------------------------------------------------------------|
E|----------------------------------------------------------------|

[MUNAF]
(1:14)-->(1:52) 
(Play this riff until drums stop)
e|-------------------------7-5-4h5-4------------------------------|
B|-----7-7-9-9-7-7-----7-7----------------------------------------|
G|-9-9-------------9-9--------------------------------------------|
D|----------------------------------------------------------------|
A|----------------------------------------------------------------|
E|----------------------------------------------------------------|

(1:52)-->(2:27) 
(Play this riff over and over)
e|----------------------------------------------------------------|
B|---12---9---7---------------------------------------------------|
G|-9----9---9---9-9-8/9-------------------------------------------|
D|----------------------------------------------------------------|
A|----------------------------------------------------------------|
E|----------------------------------------------------------------|

(3:04)-->(5:03)
e|----------------------------------------------------------------|
B|----------------------------------------------------------------|
G|----------------------------------------------------------------|
D|----------------------------------------------------------------|
A|-11-11-11-11-11-11-11-14-9-9-9-9\7-6-7----11----6---------------|
E|----------------------------------------------------------------|

(5:28)-->(6:03)
e|----------------------------------------------------------------|
B|----------------------------------------------------------------|
G|-9-8-4--6-4\1-1-2-1--1-2-4/9-11-13------------------------------|
D|----------------------------------------------------------------|
A|----------------------------------------------------------------|
E|----------------------------------------------------------------|

e|----------------------------------------------------------------|
B|-10-9\5-5-----10-9\5-5------------------------------------------|
G|----------------------------------------------------------------|
D|----------------------------------------------------------------|
A|----------------------------------------------------------------|
E|----------------------------------------------------------------|

e|----------------------------------------------------------------|
B|----------------------------------------------------------------|
G|-6-4-6-2-2-1----2-1-2-1-----------------------------------------|
D|------------------------2---------------------------------------|
A|----------------------------------------------------------------|
E|----------------------------------------------------------------|

(6:06)-->(6:18) 
(Listen closely to the song to figure out pattern. Its very faint)
e|----------------------------------------------------------------|
B|-tr12-----tr10-tr9--tr10---tr9-tr7---tr5---tr7---tr5------------|
G|----------------------------------------------------------------|
D|----------------------------------------------------------------|
A|----------------------------------------------------------------|
E|----------------------------------------------------------------|

(6:29)-->(7:07)
e|----------------------------------------------------------------|
B|----------------------------------------------------------------|
G|-9-8-4--6-4\1-1-2-1--1-2-4/9-11-13------------------------------|
D|----------------------------------------------------------------|
A|----------------------------------------------------------------|
E|----------------------------------------------------------------|

e|----------------------------------------------------------------|
B|-10-9\5-5-----10-9\5-5------------------------------------------|
G|----------------------------------------------------------------|
D|----------------------------------------------------------------|
A|----------------------------------------------------------------|
E|----------------------------------------------------------------|

e|----------------------------------------------------------------|
B|----------------------------------------------------------------|
G|-6-9-8-11-9-13--14-13-14-13\9-----------------------------------|
D|----------------------------------------------------------------|
A|----------------------------------------------------------------|
E|----------------------------------------------------------------|

(7:07)-->(7:16)
e|----------------------------------------------------------------|
B|-tr12-----tr10-tr9--tr10---tr9-tr7---tr5---tr7---tr5------------|
G|----------------------------------------------------------------|
D|----------------------------------------------------------------|
A|----------------------------------------------------------------|
E|----------------------------------------------------------------|

(7:19)-->(7:43)
e|----------------------------------------------------------------|
B|----------------------------------------------------------------|
G|---------------16-16-16-16-16-16-14\13-13-----------------------|
D|-11--13-14-16---------------------------------------------------|
A|----------------------------------------------------------------|
E|----------------------------------------------------------------|

e|----------------------------------------------------------------|
B|----------------------------------------------------------------|
G|----------------------------------------------------------------|
D|-11--14-13\9-9-9-9-9-9-9\7-7\6----------------------------------|
A|----------------------------------------------------------------|
E|----------------------------------------------------------------|

e|----------------------------------------------------------------|
B|----------------------------------------------------------------|
G|---------------16-16-16-16-16-16-14\13-13-----------------------|
D|-11--14-13-16---------------------------------------------------|
A|----------------------------------------------------------------|
E|----------------------------------------------------------------|

e|----------------------------------------------------------------|
B|----------------------------------------------------------------|
G|----------------------------------------------------------------|
D|-11--14-13\6-7-9------------------------------------------------|
A|----------------------------------------------------------------|
E|----------------------------------------------------------------|

[MICHAEL]
(Michael plays electric guitar instead of bass for this song)
(0:07)-->(1:14)
e|---7------------------------------------------------------------|
B|---------9-----7------------------------------------------------|
G|-----9-----9-----9---9-8h9--------------------------------------|
D|----------------------------------------------------------------|
A|-------------9-----0--------------------------------------------|
E|-9-----0--------------------------------------------------------|

(1:14)-->(1:52)
e|----------------------------------------------------------------|
B|----------------------------------------------------------------|
G|----------------------------------------------------------------|
D|----------------------------------------------------------------|
A|---7-7---6-6---11-11---12-9/11----------------------------------|
E|-0-----7-----0-------0------------------------------------------|

(1:52)-->(2:27)
e|----------------------------------------------------------------|
B|----------------------------------------------------------------|
G|----------------------------------------------------------------|
D|----------------------------------------------------------------|
A|-----9----------------------------------------------------------|
E|-9-0---5--------------------------------------------------------|

(2:27)-->(5:04) 
(Beautiful riff here.. use thumb to hit bass notes)
e|------0-----------0-----------0-----------0---------------------|
B|----9---9-------7---7-------7---7-------7---7------5-4-0--------|
G|--9-------9---9-------8---8-------8---8-------8---6-------0-----|
D|----------------------------------------------------------------|
A|----------------------------------------------------------------|
E|-9 ---------0-----------7-----------7-----------5---------------|

e|----------------------------------------------------------------|
B|-----0---0------------------------------------------------------|
G|---4---4---4---9-8---8h9----9-8---8h9---------------------------|
D|-------------------9------------9-------------------------------|
A|----------------------------------------------------------------|
E|-0-----------7------------7-------------------------------------|

(5:04)-->(6:18)
e|----------------------------------------------------------------|
B|----------------------------------------------------------------|
G|----------------------------------------------------------------|
D|----------------------------------------------------------------|
A|---7---9---11-11-------7---9---7-7------------------------------|
E|-9---7---0-----------9---7---0----------------------------------|

(6:18)-->(6:30) 
(Listen to song for strumming pattern)
e|----------------------------------------------------------------|
B|----------------------------------------------------------------|
G|----------------------------------------------------------------|
D|-7------2-------------------------------------------------------|
A|-7------2-------------------------------------------------------|
E|-5------0-------------------------------------------------------|

(6:30)-->(7:19)
e|----------------------------------------------------------------|
B|----------------------------------------------------------------|
G|----------------------------------------------------------------|
D|----------------------------------------------------------------|
A|---7---9---11-11-------7---9---7-7------------------------------|
E|-9---7---0-----------9---7---0----------------------------------|

(7:19)-->(7:43)
e|----------------------------------------------------------------|
B|----------------------------------------------------------------|
G|----------------------------------------------------------------|
D|-7------2-------------------------------------------------------|
A|-7------2-------------------------------------------------------|
E|-5------0-------------------------------------------------------|


************************************

| tr  = trill
| ~   = vibrato
| /   = slide up
| \   = slide down
\ h   = hammer on

************************************

            
            
Suggest correction
Creating personal tab
Creating personal tab
You can edit any tab online and save it as your Personal.

You can edit, replace or remove any tab part or add personal notes – all changes will be seen only by you.

Personal tabs can be accessed anytime from any device, even offline.
Learn more »
comments
print report bad tab
32 comments total. Showing first comments.
+1 reply
anti 191 Sep 13, 2004 08:00 PM

great job. nice work

+2 reply
bengalaas 90 Oct 13, 2004 08:00 PM

hey thanks.. it was hard work! :)

+1 reply
red_light_stand 20 Dec 05, 2004 07:00 PM

very accurate.and you picked the right song to tab..i luv this song!goodjob

guest
You may want to rate the tab now too:
select rating
Wanna post a correction for this tab? Suggest correction