Oops, an error
Loading. Please wait.
We have an official Your Hand In Mine tab made by UG professional guitarists. Check out the tab »
×

Your Hand In Mine tab

11,093 views 6 this week
no commentswrite comment
1 2 3 4 5
x 4
add to favorites
×
Save as Personal and add changes to this tab that will be seen only by you. Learn more ›
×
You can save this tab as Personal to edit and correct it or add notes. All changes will be seen only by you. Learn more »
launch autoscroll
font size
0
reset
how to read this tab
guitar tuner
edit
Autoscroll
slow
fast
+/-
esc
set tempo
stop
YOUR HAND IN MINE - MAIN GUITAR PARTS
This tab is just of all the main guitar parts.
(0:00 - o:o7)
e-11-12-14-------------------------------------------------------|
B----------------------------------------------------------------|
G----------------------------------------------------------------|
D----------------------------------------------------------------| x1
A----------------------------------------------------------------|
E----------------------------------------------------------------|

(0:07 - o:21)
e---7------------------------------------------------------------|
B---------9-----7------------------------------------------------|
G-----9-----9-----9---9-8h9--------------------------------------|
D----------------------------------------------------------------| x2
A-------------9-----0--------------------------------------------|
E-9-----0--------------------------------------------------------|

(0:21 - 1:13) Both these x2 (Or continue with last part until 1:13)
e----------------------------------------------------------------|
B-12-10-9-10-7-10-9-7-4h5-9--------------------------------------|
G----------------------------------------------------------------|
D----------------------------------------------------------------|
A----------------------------------------------------------------|
E----------------------------------------------------------------| 

e----------------------------------------------------------------|
B-14-12-10-9-12-----9-7\2-2/5------------------------------------|
G----------------------------------------------------------------|
D----------------------------------------------------------------|
A----------------------------------------------------------------|
E----------------------------------------------------------------|

(1:13 - 1:46) 
e-------------------------7-5-4h5-4------------------------------|
B-----7-7-9-9-7-7-----7-7----------------------------------------|
G-9-9-------------9-9--------------------------------------------|
D----------------------------------------------------------------| x3
A----------------------------------------------------------------|
E----------------------------------------------------------------|

(1:54 - 2:14) Both these x2 (Or 0:07-0:21 riff x4)
e----------------------------------------------------------------|
B-12-10-9-10-7-10-9-7-4h5-9--------------------------------------|
G----------------------------------------------------------------|
D----------------------------------------------------------------|
A----------------------------------------------------------------|
E----------------------------------------------------------------| 

e----------------------------------------------------------------|
B-14-12-10-9-12-----9-7\2-2/5------------------------------------|
G----------------------------------------------------------------|
D----------------------------------------------------------------|
A----------------------------------------------------------------|
E----------------------------------------------------------------|

(2:22 - 2:27)
e-11-12-14-14----------------------------------------------------|
B----------------------------------------------------------------|
G----------------------------------------------------------------|
D----------------------------------------------------------------| x1
A----------------------------------------------------------------|
E----------------------------------------------------------------|

(2:27 - 3:28)
e------0-----------0-----------0-----------0---------------------|
B----9---9-------7---7-------7---7-------7---7------5-4-0--------|
G--9-------9---9-------8---8-------8---8-------8---6-------0-----|
D----------------------------------------------------------------|
A----------------------------------------------------------------|
E-9----------0-----------7-----------7-----------5---------------|all this

e----------------------------------------------------------------| x6
B-----0---0------------------------------------------------------|
G---4---4---4---9-8---8h9----9-8---8h9---------------------------|
D-------------------9------------9-------------------------------|
A----------------------------------------------------------------|
E-0-----------7------------7-------------------------------------|

(3:28 - 4:15)
e-------------------------------------12-12-11\7-7-7-7etc.-------|
B-9-9-9-9-9-9-10-12----------------------------------------------|
G-------------------11-11-11-14-14-14----------------------------|
D----------------------------------------------------------------| x4
A----------------------------------------------------------------|
E----------------------------------------------------------------|

(4:15 - 5:o3)
e-tr16-tr19-tr12-tr14-tr9-tr7-tr12-tr14--------------------------|
B----------------------------------------------------------------|
G----------------------------------------------------------------|
D----------------------------------------------------------------| x6
A----------------------------------------------------------------|
E----------------------------------------------------------------|

(5:05 - 5:28)
e----------------------------------------------------------------|
B----------------------------------------------------------------|
G----------------------------------------------------------------|
D----------------------------------------------------------------| x2
A---7---9---11-11-------7---9---7-7------------------------------|
E-9---7---0-----------9---7---0----------------------------------|

(5:28 - 5:41)
e----------------------------------------------------------------|
B----------------------------------------------------------------|
G-9-8-4--6-4\1-1-2-1--1-2-4/9-11---------------------------------|
D----------------------------------------------------------------| x1
A----------------------------------------------------------------|
E----------------------------------------------------------------|

(5:41 - 6:o3)
e----14-------------19-16-19-16----------------------------------|
B-17----17----------------------17-------------------------------|
G----------------------------------------------------------------|
D----------------------------------------------------------------| x1
A----------------------------------------------------------------|
E----------------------------------------------------------------|

e-9-7-9----------------------------------------------------------|
B-------10-10-9-10-9-10-9\5-5------------------------------------|
G----------------------------------------------------------------|
D----------------------------------------------------------------| x1
A----------------------------------------------------------------|
E----------------------------------------------------------------|

(6:05 - 6:17)
e----------------------------------------------------------------|
B-12-12-12-10-9---12-12-12-10-9---12-12-10-9-9-10-12-------------|
G----------------------------------------------------------------|
D----------------------------------------------------------------| x2
A----------------------------------------------------------------|
E----------------------------------------------------------------|

(6:17 - 6:29)
e----------------------------------------------------------------|
B-12-12-12-12-12----12-12-12-12-12----12-12-12-12-12\10-10\9-9---|
G----------------------------------------------------------------|
D----------------------------------------------------------------| x2
A----------------------------------------------------------------|
E----------------------------------------------------------------|

(6:30 - 7:o5)
e----------------------------------------------------------------|
B----------------------------------------------------------------|
G-9-8-4--6-4\1-1-2-1--1-2-4/9-11-13------------------------------|
D----------------------------------------------------------------| x1
A----------------------------------------------------------------|
E----------------------------------------------------------------|

e----------------------------------------------------------------|
B-10-9\5-5-----10-9\5-5------------------------------------------|
G----------------------------------------------------------------|
D----------------------------------------------------------------| x1 
A----------------------------------------------------------------|
E----------------------------------------------------------------|

e----------------------------------------------------------------|
B----------------------------------------------------------------|
G-6-4-6-2-2-1----2-1-2-1-----------------------------------------|
D------------------------2---------------------------------------| x1
A----------------------------------------------------------------|
E----------------------------------------------------------------|

(7:07 - 7:19)
e----------------------------------------------------------------|
B-12-12-12-10-9---12-12-12-10-9---12-12-10-9-9-10-12-------------|
G----------------------------------------------------------------|
D----------------------------------------------------------------| x2
A----------------------------------------------------------------|
E----------------------------------------------------------------|

(7:19 - 7:43)
e--------------------------------------------------------------|----|
B-12-12-12-12-12----12-12-12-12-12----12-12-12-12-12\10-10\9-9-|-12-|
G--------------------------------------------------------------|----|
D--------------------------------------------------------------|----| x4
A--------------------------------------------------------------|----|
E----------hold that last note till end------------------------|----|

            
            
Suggest correction
Creating personal tab
Creating personal tab
You can edit any tab online and save it as your Personal.

You can edit, replace or remove any tab part or add personal notes – all changes will be seen only by you.

Personal tabs can be accessed anytime from any device, even offline.
Learn more »
comments
print report bad tab
guest
Wanna post a correction for this tab? Suggest correction