Oops, an error
Loading. Please wait.

Le Savant Fou intro tab

by eXterio
1,925 views 3 this week
3 commentsread comments
1 2 3 4 5
2 more votes to show rating
add to favorites
×
Save as Personal and add changes to this tab that will be seen only by you. Learn more ›
×
You can save this tab as Personal to edit and correct it or add notes. All changes will be seen only by you. Learn more »
launch autoscroll
font size
0
reset
how to read this tab
guitar tuner
edit
Autoscroll
slow
fast
+/-
esc
set tempo
stop
Author
Difficulty
Song     : Le Savant Fou
Language : French
Tab by   : Jean-Philippe Monette

Info     : This is just the intro of the song. Maybe i'll do the complete song
           later but I don't have the time now so there it is. All the others
           versions I found on the web suck so there you go for the intro.

                                                                           (x4)
e|---------------------------------------|---------------------------------------|
B|---------------------------------------|---------------------------------------|
G|-----10-----10---10-----10-----10---10-|---------------------------------------|
D|-8-8----8-8----8----8-8----8-8----8----|-----10-----10---10--4--4--4-----------|
A|---------------------------------------|-9-9----9-9----9-----4--4--4-----------|
E|---------------------------------------|---------------------2--2--2-----------|

  -> Notice that during the second repetition, the second guitar do the same
     thing with the other guitar and for the 2 other repetitions too.

            
            
Suggest correction
Creating personal tab
Creating personal tab
You can edit any tab online and save it as your Personal.

You can edit, replace or remove any tab part or add personal notes – all changes will be seen only by you.

Personal tabs can be accessed anytime from any device, even offline.
Learn more »
Give kudos to tab author, rate the tab!
1 2 3 4 5
comments
print report bad tab
3 comments total.
0 reply
Operator (CA) 715 Nov 14, 2005 12:14 PM

Yeah that song rocks. Vive Exterio!

0 reply
Operator (CA) 715 Jul 23, 2006 04:17 PM

ouin by the way le tuning de exterio c Drop Db (Db Ab Db Gb Bb Eb)

+1 reply
xblackmoonx 10 Oct 13, 2007 09:22 AM

le tuning est pas bon, d'apres moi la vrai tabs c'est

Gb------11---11-------11---11----------11-----11----------------
Db----9----9----9-9-9----9---------------------------------------
Ab----------------------------10-10-10----10-----10-0-0-0-0-0-----
Db--------------------------------------------------0-0-0-0-0--

guest
You may want to rate the tab now too:
select rating
Wanna post a correction for this tab? Suggest correction