Oops, an error
Loading. Please wait.
We have an official More Than Words tab made by UG professional guitarists. Check out the tab »
×

More Than Words tab

by Extreme
69,353 views 180 this week
no commentswrite comment
1 2 3 4 5
x 13
add to favorites
×
Save as Personal and add changes to this tab that will be seen only by you. Learn more ›
×
You can save this tab as Personal to edit and correct it or add notes. All changes will be seen only by you. Learn more »
launch autoscroll
font size
0
reset
how to read this tab
guitar tuner
backing track
0:00
0:00
edit
Autoscroll
slow
fast
+/-
esc
set tempo
stop
[Intro]
    G     G/B     Cadd9             Am7           C             Dsus4   G
    +   +   +   +     +   +   +   +     +   +   +   +     +   +   +   +
eb|---3-------3-----|---0-----3-0-----|---0-----3-------|---0---2---3-----|
Bb|---3-x-3---3-x-3-|---3-x---3-3-x-1-|---1-x-1-1-1-x-1-|---1-x-3---3-x-3-|
Gb|---0-x-0---0-x-0-|---0-x---0-0-x-0-|---0-x-0-0-0-x-0-|---0-x-2---2-x-0-|
Db|-----x-------x---|-----x-------x---|-----x-------x---|-----x---0---x---|
Ab|-------2-------3-|-------3---3---0-|-------0---3---3-|-----------------|
Eb|-3---------------|-----------------|-----------------|---------------3-|

          G/B     Cadd9             Am7            C             Dsus4   G
    +   +   +   +     +   +   +   +     +   +   +   +     +   +   +   +
eb|---3-------3-----|---0-----3-0-----|---0-----3-------|---0---2---3-----|
Bb|---3-x-3---3-x-3-|---3-x---3-3-x-1-|---1-x-1-1-1-x-1-|---1-x-3---3-x-3-|
Gb|---0-x-0---0-x-0-|---0-x---0-0-x-0-|---0-x-0-0-0-x-0-|---0-x-2---2-x-0-|
Db|-----x-------x---|-----x-------x---|-----x-------x---|-----x---0---x---|
Ab|-------2-------3-|-------3---3---0-|-------0---3---3-|-----------------|
Eb|-----------------|-----------------|-----------------|---------------3-|

[Verse]
            sayin' I  love you       is not the words I   want to hear from
    G     G/B     Cadd9             Am7           C             Dsus4   G
    +   +   +   +     +   +   +   +     +   +   +   +     +   +   +   +
eb|---3-------3-----|---0-----3-0-----|---0-----3-0-----|---0---2---3-----|
Bb|---3-x-3---3-x-3-|---3-x---3-3-x-1-|---1-x-1-1-1-x-1-|---1-x-3---3-x-3-|
Gb|---0-x-0---0-x-0-|---0-x---0-0-x-0-|---0-x-0-0-0-x-0-|---0-x-2---2-x-0-|
Db|-----x-------x---|-----x-------x---|-----x-------x---|-----x---0---x---|
Ab|-------2-------3-|-------3---3---0-|-------0---3---3-|-----------------|
Eb|-----------------|-----------------|-----------------|---------------3-|

   you    it's not that I want to       not to say but if you     only
          G/B     Cadd9             Am7           C             Dsus4   Em
    +   +   +   +     +   +   +   +     +   +   +   +     +   +   +   +
eb|---3-------3-----|---0-----3-0-----|---0-----3-------|---0---2---3-----|
Bb|---3-x-3---3-x-3-|---3-x---3-3-x-1-|---1-x-1-1-1-x-1-|---1-x-3---3-x-0-|
Gb|---0-x-0---0-x-0-|---0-x---0-0-x-0-|---0-x-0-0-0-x-0-|---0-x-2---2-x-0-|
Db|-----x-------x---|-----x-------x---|-----x-------x---|-----x---0---x---|
Ab|-------2-------3-|-------3---3---0-|-------0---3---3-|-----------------|
Eb|-----------------|-----------------|-----------------|---------------0-|

    knew      how     easy      it would be to        show me   how you
          Em/B    C                     D             G         D/F#    Em
    +   +   +   +     +   +   +   +     +   +   +   +     +   +   +   +
eb|---0-------0-----|---0-----3-0-----|-2-----2---2---3-|-------3---2-----|
Bb|---0-x-0---0-x-1-|---1-x---1-1-x---|-3---x-3---3-x-3-|---3---3---3---0-|
Gb|---0-x-0---0-x-0-|---0-x---0-0-x---|-2---x-2---2-x-0-|---0---2---2---0-|
Db|-----x-------x---|-----x-------x---|-0---x-0---0-x---|---0-------------|
Ab|-------2-------3-|-------3---3-----|-----------------|-----------------|
Eb|-----------------|-----------------|---------------3-|---3---2---2---0-|

    feel         more than words     is all you have to do to make it real
          C       Am7                   D             G7        G7/B    C
    +   +   +   +     +   +   +   +     +   +   +   +     +   +   +   +
eb|---0-------0-----|---0-----3-0-----|-2-----2---2---1-|---1-------1-----|
Bb|---0-x-1---1-x-1-|---1-x---1-1-x---|-3---x-3---3-x-0-|---0---0---0---1-|
Gb|---0-x-0---0-x-0-|---0-x---0-0-x---|-2---x-2---2-x-0-|---0---0---0---0-|
Db|-----x-------x---|-----x-------x---|-0---x-0---0-x---|-----------------|
Ab|-------3-------0-|-------0---0-----|-----------------|-------2-------3-|
Eb|-----------------|-----------------|---------------3-|---3-------------|

            then you wouldn't have to say      that you love me      cause
                  Am7               G                 Em    G/B Em  G/B
    +   +   +   +     +   +   +   +     +   +   +   +     +   +   +   +
eb|---0-----3-0-----|---3-----3-0-----|---3--3-----3--3-|---3---3---3-----|
Bb|---1-x---1-1-x-1-|---1-x---1-1-x---|---3-x3-----3x-3-|-x-3-x-3-x-3-x---|
Gb|---0-x---0-0-x-0-|---0-x---0-0-x---|---0-x0-----0x-0-|-x-0-x-0-x-0-x---|
Db|-----x-------x---|-----x-------x---|-----x---------2-|-x---x-2-x---x---|
Ab|-------3-------0-|-------0---0-----|-----------------|---2-------2-----|
Eb|-----------------|---------------3-|------3-3-2-0----|-----------------|

     I'd              already...
     C                  D
     +   +   +   +      +   +   +   +
eb|-^0---------------|-^2---------------|
Bb|-^1---------------|-^3---------------|
Gb|-^0---------------|-^2---------------|
Db|-^2---------------|-^0---------------|
Ab|-^3---------------|------------------|
Eb|------------------|------------------|

[Chorus]
   know    what  would     you         do      if my heart were torn in two
    G     G/B     G         G/B         D             Em        D       C
    +   +   +   +     +   +   +   +     +   +   +   +     +   +   +   +
eb|---3-------3-----|---3-------3-----|-----2---2-2---0-|-----------3-----|
Bb|---3-x-3---3-x-3-|---3-x-3---3-x---|-3---3---3-3---0-|-x-0-x-3---2-x-1-|
Gb|---0-x-0---0-x-0-|---0-x-0---0-x---|-2---2---2-2-----|-x-0-x-2---3-x-0-|
Db|-----x-------x---|-----x-------x---|-0-------0-0---2-|-x---x---0---x---|
Ab|-------2---------|-------2---------|-----------------|---2-----------3-|
Eb|-3-------------3-|-----------------|-----------------|-----------------|

           more than words to show you    feel that your love for me is
                                G/B Am7               D         D7      G
    +   +   +   +     +   +   +   +     +   +   +   +     +   +   +   +
eb|---0-----0-0---0-|---0---0---3---0-|---0-----3-0---2-|---2---2---2-----|
Bb|---1-x---1-1-x-1-|---1-x-1-x-3-x-1-|---1-x---1-1-x-3-|-x-3-x-1-x-1-x---|
Gb|---0-x---0-0-x-0-|---0-x-0-x-0-x-0-|---0-x---0-0-x-2-|-x-2-x-2-x-2-x---|
Db|-----x-------x---|-----x---x---x---|-----x-------x-0-|-x-0-x-0-x-0-x---|
Ab|---------3-3---3-|---3---3---2---0-|---0-----0-0-----|-----------------|
Eb|-----------------|-----------------|-----------------|---------------3-|

   real     what would     you       say       if I took  those words away
    G     G/B     G         G/B         D             Em        D       C
    +   +   +   +     +   +   +   +     +   +   +   +     +   +   +   +
eb|---3-------3-----|---3-------3-----|-----2---2-2---0-|-----------3-----|
Bb|---3-x-3---3-x-3-|---3-x-3---3-x---|-3---3---3-3---0-|-x-0-x-3---2-x-1-|
Gb|---0-x-0---0-x-0-|---0-x-0---0-x---|-2---2---2-2-----|-x-0-x-2---3-x-0-|
Db|-----x-------x---|-----x-------x---|-0-------0-0---2-|-x---x---0---x---|
Ab|-------2---------|-------2---------|-----------------|---2-----------3-|
Eb|-3-------------3-|-----------------|-----------------|-----------------|

           then you couldn't make things new just by  sayin' I love you
                                G/B Am7                D
    +   +   +   +     +   +   +   +     +   +   +   +      +   +   +   +
eb|---0-----0-0---0-|---0---0---3---0-|---0-----3-0---^2-|-----------------|
Bb|---1-x---1-1-x-1-|---1-x-1-x-3-x-1-|---1-x---1-1-x-^3-|-----------------|
Gb|---0-x---0-0-x-0-|---0-x-0-x-0-x-0-|---0-x---0-0-x-^2-|-----------------|
Db|-----x-------x---|-----x---x---x---|-----x-------x-^0-|-----------------|
Ab|---------3-3---3-|---3---3---2---0-|---0-----0-0------|-----------------|
Eb|-----------------|-----------------|------------------|-----------------| 

[Ending Part]
  E E E E E E E E   E E E E E E E E   E E E E E E E E   E E E E E E E E 
eb|---------3-------|---------0-------|---------0-------|-----------0-----| 
Bb|-----3-----3-----|-----0-----3-----|-----3-----3-----|---------0---0---| 
Gb|---0---0-----0---|---2---2-----2---|---2---2-----2---|-------2-------2-| 
Db|-----------------|-----------------|-----------------|-----2-----------| 
Ab|-----------------|-----------------|-----------------|---2-------------| 
Eb|-3-------------3-|-2-------------2-|-1-------------1-|-0---------------| 
 
                    Free Time Cadenza 
                                              H=H 
                               T            T            T 
                               |----6----|  |----6----|  |----6----| 
    E E E E E E E E    S S S S  S S S S S S  S S S S S S  S S S S S S 
eb|---------0-------||---2-3-5-17-5p3p2h3h5-15-5p3p2h3h5-17-5p3p2h3h5-| 
Bb|-------1---1-----||------------------------------------------------| 
Gb|-----0-------0---||------------------------------------------------| 
Db|---2-----------2-||------------------------------------------------| 
Ab|-0---------------||-0----------------------------------------------| 
Eb|-----------------||------------------------------------------------| 
                     W 

    T             T            T            T 
    |----6-----|  |----6----|  |----6----|  |----6----| 
     S  S S S S S  S S S S S S  S S S S S S  S S S S S S 
eb|-15--5-3-2-3-5-14-5-3-2-3-5-15-5-3-2-3-5-14-5-3-2-3-5-| 
Bb|------------------------------------------------------| 
Gb|------------------------------------------------------| 
Db|------------------------------------------------------| 
Ab|-(0)--------------------------------------------------| 
Eb|------------------------------------------------------| 
  +W 

    T             T           T         T        T 
    |----6-----|  |----6----| |----6----| |----6-----| 
     S  S S S S S  S S S S S S S S S S S S S S  S S S S 
eb|-12--5p3p2h3h5-10-5p3p2h3h5-7-5p3p2h5-7-5p2-----------| 
Bb|--------------------------------------------h5-7-5p3--| 
Gb|------------------------------------------------------| 
Db|------------------------------------------------------| 
Ab|-(0)--------------------------------------------------| 
Eb|------------------------------------------------------| 
  +W 

                                                     A Tempo Q=93 
      T                T 
     T T T T T  T T T T T T T T T T T a E  S   S   Q     E E E E E E E E 
eb|----------------------------------------------------|---------3-------| 
Bb|----------------------------------------------------|-------3---3-----| 
Gb|-h4-7-4p2p0----------7-4p2p0------------------------|-----0-------0---| 
Db|------------h4-2p0h4---------4p2p0------------------|-----------------| 
Ab|-----------------------------------x----------------|---2-----------2-| 
Eb|-------------------------------------0--------------|-3---------------| 
 
                    H.=H 
    E E E E E E E E   E E E E E E E E   E S S S S E  H 
eb|-----3-------3---|-----3-----------|-0-3s5p3h5p3-^3----| 
Bb|-3-----3-3-----3-|-3-----3-------1-|-------------^3----| 
Gb|---0-------0-----|---0---------0---|-------------^0----| 
Db|-----------------|-----------2-----|-------------^0----| 
Ab|-3-------2-------|-1-------0-------|-------------^2----| 
Eb|-----------------|-----------------|-------------^3----|

************************************

| x    Dead note
| (n)  Ghost note
| h    Hammer-on
| p    Pull-off
| >    Accented note
| b    Bend
| s    Slide
| E    eighth note
| Q    quarter note
| S    sixteenth note
| H    half note


************************************

            
            
Suggest correction
Creating personal tab
Creating personal tab
You can edit any tab online and save it as your Personal.

You can edit, replace or remove any tab part or add personal notes – all changes will be seen only by you.

Personal tabs can be accessed anytime from any device, even offline.
Learn more »
comments
print report bad tab
guest
You may want to rate the tab now too:
select rating
Wanna post a correction for this tab? Suggest correction