Oops, an error
Loading. Please wait.

So Payaso bass

version 1
version 1

Whole song

Interactive

7,152 views 15 this week
1 commentread comment
1 2 3 4 5
3 more votes to show rating
add to favorites
×
Save as Personal and add changes to this tab that will be seen only by you. Learn more ›
×
You can save this tab as Personal to edit and correct it or add notes. All changes will be seen only by you. Learn more »
launch autoscroll
font size
0
reset
guitar tuner
backing track
0:00
0:00
edit
Autoscroll
slow
fast
+/-
esc
set tempo
stop
Author
Principio: Sin Bajo.

 Puede que me deje llevar...
 puede que levante la voz...
 o puede que me arranque sin mas...
 a ver que me dice despues...

g |-----------------------------------------------------------|
d |-----------------------------------------------------------|
a |-----5---------------------5------------------5------------|
e |--0---------------------0------------------0---------------|
          Quiero ser 
          tu perro fiel.   Tu esclavo...    que luego...

g |----------------------------------------------------------------|
d |----------------------------------------------------------------|
a |-----5----------------------3-3-3-3-3-3--7-7-7-7-7-7-7-7--------|
e |--0-------------------------------------------------------------|
         A ver que me     so payaso...
         dices despues... me tiemblan los pies a su lado
                          me dice que estoy descolorio
                          me empiezo a pensar...

g |-----------------------|
d |-----------------------|
a |-4-4-4-4-4-4-4--16>>>0-|
e |-----------------------|
                         A ver que me dice despues.

ESTRIBILLO:
  
  (1)
g |----------------------------------------------------------------|
d |----------------------------------------------------------------|
a |-------9-10----7-7-9-10------9-10--7-7-9-10-9-7-3-3-3-3-3-3-3-3-|
e |---8-8-------------------8-8------------------------------------|
                       <--repetir (1)
g |-----------------------------------|----------------------------|
d |-----------------------------------|----------4-5---------------|
a |---7-7-7-7-7-7-7-7-4444444444444444|-7-------5----7-------------|
e |-----------------------------------|---7-5-7--------7-5-7-------|
             
g |----------------------|
d |--------4-5-----------|
a |--5-5-5-----3>>>7>>>4-|
e |----------------------|
 
 (2)                                                  <-- Repetir (2)
g |--------------------------------------------------------------------|
d |----9-7-9---7-9----9-7-9---7-9---7-9-7---7-9---7-9-7---7-9-10-10-10-|
a |--7-------9------7-------9-----7-------9-----7-------9--------------|
e |--------------------------------------------------------------------|
            Acercate y ya veras.....a ver que me dices despues...
            Hago casas de carton....

ESTRIBILLO

PUNTEO
g |-------------------------------------------------------------------|
d |-------------------------------------------------------------------|
a |-3333333377777777333333337777777733333333777777774444444444444444--|
e |-------------------------------------------------------------------|
                                                Repetir muchas veces

  Luego se van intercalando partes de estribillo y punteo

            
            
Suggest correction
Creating personal tab
Creating personal tab
You can edit any tab online and save it as your Personal.

You can edit, replace or remove any tab part or add personal notes – all changes will be seen only by you.

Personal tabs can be accessed anytime from any device, even offline.
Learn more »
Give kudos to tab author, rate the tab!
1 2 3 4 5
comments
print report bad tab
1 comment total.
0 reply
PorkyR2P2 10 Jul 04, 2012 07:07 AM

Si pretendes que me entere de en que momento va cada parte o repeticion con esas flechitas vas mal...
Ahora, por favor, deberias de ordenarlo mejor, aunque eso implique añadir las repeticiones en tablatura. Así uno se entera mejor de como funciona la cosa...

guest
You may want to rate the tab now too:
select rating
Wanna post a correction for this tab? Suggest correction