Oops, an error
Loading. Please wait.

Untried tab

version 1
version 1

Whole song

43 views 1 this week
no commentswrite comment
1 2 3 4 5
3 more votes to show rating
add to favorites
×
Save as Personal and add changes to this tab that will be seen only by you. Learn more ›
×
You can save this tab as Personal to edit and correct it or add notes. All changes will be seen only by you. Learn more »
launch autoscroll
font size
0
reset
how to read this tab
guitar tuner
edit
Autoscroll
slow
fast
+/-
esc
set tempo
stop
Author
Difficulty
Eyes Adrift

      Untried
   ______________


--------------------------------------------------------------------------
It's strange, but I've tuned my guitar 1/4 tone down to play along with
the song on youtube. That's not a common tuning, so something went wrong
with youtube I guess. If you got the song on CD, the standard tuning 
will probably be right. If not, do it like me.  
--------------------------------------------------------------------------



Rythm guitar
_____________

Intro

e|--------
b|--------
g|--9--6--
D|--9--7--
A|--7--7--
E|--0--5--


Verse

e|-----------------------------------------    3 Times
b|--------------7--------------------5--0--
g|-----------9-----9-----------------------
D|--------9-----------9-----------7--------
A|-----7-----------------7-----7-----------
E|--0-----------------------5--------------


e|-----------------------------------   
b|--------------7--------------------
g|-----------9-----9-----------------
D|--------9-----------9-----7--6--4--
A|-----7-----------------7--7--6--4--
E|--0-----------------------5--4--2--


Chorus (the same as intro)

e|--------
b|--------
g|--9--6--
D|--9--7--
A|--7--7--
E|--0--5--


Bridge is also the same

e|--------
b|--------
g|--9--6--
D|--9--7--
A|--7--7--
E|--0--5--



Lead guitar
____________

Intro

e|-----------------------------------------------------------------
b|------------------------------12------10~------10------10/12\10--
g|---------9/11\9--------11/13------13-------13------11--11/13\11--
D|---------9/11\9--9--9--------------------------------------------
A|-----9/----------------------------------------------------------
E|--0--------------------------------------------------------------


e|--------------------------------------<12>-----------------------------
b|------------------------------12----------------10-------------12------
g|---------9/11\9--------11/13------13--------11------11--11/13------13--
D|---------9/11\9--9--9--------------------------------------------------
A|-----9/----------------------------------------------------------------
E|--0--------------------------------------------------------------------


e|-----------------------------------------------------------------
b|------------------------------12------10~------10------10/12\10--
g|---------9/11\9--------11/13------13-------13------11--11/13\11--
D|---------9/11\9--9--9--------------------------------------------
A|-----9/----------------------------------------------------------
E|--0--------------------------------------------------------------


e|--------------------------------------<12>--
b|------------------------------12------------
g|---------9/11\9--------11/13------13--------
D|---------9/11\9--9--9-----------------------
A|-----9/-------------------------------------
E|--0-----------------------------------------


...Directionless, untried and true

e|--------------------------------------<12>--
b|------------------------------12------------
g|---------9/11\9--------11/13------13--------
D|---------9/11\9--9--9-----------------------
A|-----9/-------------------------------------
E|--0-----------------------------------------


...Directionless, so what, untried and true

e|-----------------------------------------------------------------
b|------------------------------12------10~------10------10/12\10--
g|---------9/11\9--------11/13------13-------13------11--11/13\11--
D|---------9/11\9--9--9--------------------------------------------
A|-----9/----------------------------------------------------------
E|--0--------------------------------------------------------------


e|--------------------------------------<12>--
b|------------------------------12------------
g|---------9/11\9--------11/13------13--------
D|---------9/11\9--9--9-----------------------
A|-----9/-------------------------------------
E|--0-----------------------------------------


...Directionless, so what, untried and true

e|--------------------------------------<12>--
b|------------------------------12------------
g|---------9/11\9--------11/13------13--------
D|---------9/11\9--9--9-----------------------
A|-----9/-------------------------------------
E|--0-----------------------------------------


...Directionless, untried and true


Solo and the rest of the song
______________________________

It's too hard to figure it out and doesn't sound that great,
so I'd say improvise anything with a lot of distortion or whatever you want.



Enjoy 




            
            
Suggest correction
Creating personal tab
Creating personal tab
You can edit any tab online and save it as your Personal.

You can edit, replace or remove any tab part or add personal notes – all changes will be seen only by you.

Personal tabs can be accessed anytime from any device, even offline.
Learn more »
Give kudos to tab author, rate the tab!
1 2 3 4 5
comments
print report bad tab
guest
You may want to rate the tab now too:
select rating
Wanna post a correction for this tab? Suggest correction