Oops, an error
Loading. Please wait.

Liar In The Glass tab

version 3
version 3

Whole song

Interactive

4,823 views 3 this week
1 commentread comment
1 2 3 4 5
x 4
add to favorites
×
Save as Personal and add changes to this tab that will be seen only by you. Learn more ›
×
You can save this tab as Personal to edit and correct it or add notes. All changes will be seen only by you. Learn more »
launch autoscroll
font size
0
reset
how to read this tab
guitar tuner
edit
Autoscroll
slow
fast
+/-
esc
set tempo
stop
Author
                              Liar in the Glass
                              Eyes Set To Kill
                 Reach/When Silence is Broken The Night Is Torn


Guitar 1



                  PM    PM    PM       PM    PM    PM    PM     
E||-------|-------------------------|--------------------------|
B||-------|-------------------------|--------------------------|
G||-------|-------------------------|--------------------------|
D||-------|-------------------------|-----5--------------------|
A||-------|--0-------5-----7-----8--|-----------8-----7-----8--|
D||-------|--0----0-----0-----0-----|--0-----0-----0-----0-----|


               PM PM                                     PM    PM    PM     
-----------------------|-------------------------|-------------------------|
-----------------------|-------------------------|-------------------------|
-----------------------|-------------------------|-------------------------|
-----------------------|----------------7--------|-------------------------|
--8----8--8----8--8----|--7----5--7--8-----8--7--|--0-------5-----7-----8--|
--8----8--8----8--8----|--7----------------------|--0----0-----0-----0-----|


  PM    PM    PM    PM                    PM PM                               
--------------------------|-----------------------|-------------------------|
--------------------------|-----------------------|-------------------------|
--------------------------|-----------------------|-------------------------|
-----5--------------------|-----------------------|----------------7--------|
-----------8-----7-----8--|--8----8--8----8--8----|--7----5--7--8-----8--7--|
--0-----0-----0-----0-----|--8----8--8----8--8----|--7----------------------|


       PM    PM    PM       PM    PM    PM    PM                    PM PM       
-------------------------|--------------------------|-----------------------|
-------------------------|--------------------------|-----------------------|
-------------------------|--------------------------|-----------------------|
-------------------------|-----5--------------------|-----------------------|
--0-------5-----7-----8--|-----------8-----7-----8--|--8----8--8----8--8----|
--0----0-----0-----0-----|--0-----0-----0-----0-----|--8----8--8----8--8----|


                                 PM    PM    PM       PM    PM    PM    PM      
-------------------------|-------------------------|--------------------------|
-------------------------|-------------------------|--------------------------|
-------------------------|-------------------------|--------------------------|
----------------7--------|-------------------------|-----5--------------------|
--7----5--7--8-----8--7--|--0-------5-----7-----8--|-----------8-----7-----8--|
--7----------------------|--0----0-----0-----0-----|--0-----0-----0-----0-----|


               PM PM                               
-----------------------|-------------------------|
-----------------------|-------------------------|
-----------------------|-------------------------|
-----------------------|----------------7--------|
--8----8--8----8--8----|--7----5--7--8-----8--7--|
--8----8--8----8--8----|--7----------------------|


  PM PM PM PM PM PM                                       
------------------------------|-----1--------0-----------|
------------------------------|--------3--------3-----3--|
------------------------------|--2--------2--------2-----|
------------------------------|--------------------------|
------------------------------|--------------------------|
--0--0--0--0--0--0------------|--------------------------|

 
--1--------0--------3-----|-----3--------3-----------|
-----3--------3--------2--|--------2--------2-----2--|
--------2--------2--------|--2--------2--------2-----|
--------------------------|--------------------------|
--------------------------|--------------------------|
--------------------------|--------------------------|

 
--1--------0--------3-----|-----1--------0-----------|
-----3--------3--------3--|--------3--------3-----3--|
--------2--------2--------|--2--------2--------2-----|
--------------------------|--------------------------|
--------------------------|--------------------------|
--------------------------|--------------------------|


--1--------0--------3-----|-----3--------3-----------|
-----3--------3--------2--|--------2--------2-----2--|
--------3--------3--------|--2--------2--------2-----|
--------------------------|--------------------------|
--------------------------|--------------------------|
--------------------------|--------------------------|


--1--------0--------3-----|-----1--------0-----------|
-----3--------3--------3--|--------3--------3-----3--|
--------2--------2--------|--2--------2--------2-----|
--------------------------|--------------------------|
--------------------------|--------------------------|
--------------------------|--------------------------|


--1--------0--------3-----|-----3--------3-----------|
-----3--------3--------2--|--------2--------2-----2--|
--------3--------3--------|--2--------2--------2-----|
--------------------------|--------------------------|
--------------------------|--------------------------|
--------------------------|--------------------------|

 
--1--------0--------3-----|-----1--------0-----------|
-----3--------3--------3--|--------3--------3-----3--|
--------2--------2--------|--2--------2--------2-----|
--------------------------|--------------------------|
--------------------------|--------------------------|
--------------------------|--------------------------|


--1--------0--------3-----|-----3--------3-----------|
-----3--------3--------2--|--------2--------2-----2--|
--------3--------3--------|--2--------2--------2-----|
--------------------------|--------------------------|
--------------------------|--------------------------|
--------------------------|--------------------------|


--1--------0--------3-----|-----1--------0-----------|
-----3--------3--------3--|--------3--------3-----3--|
--------2--------2--------|--2--------2--------2-----|
--------------------------|--------------------------|
--------------------------|--------------------------|
--------------------------|--------------------------|


--1--------0--------3-----|-----3--------3-----------|
-----3--------3--------2--|--------2--------2-----2--|
--------3--------3--------|--2--------2--------2-----|
--------------------------|--------------------------|
--------------------------|--------------------------|
--------------------------|--------------------------|


--1--------0--------3-----|-----1--------0-----------|
-----3--------3--------3--|--------3--------3-----3--|
--------2--------2--------|--2--------2--------2-----|
--------------------------|--------------------------|
--------------------------|--------------------------|
--------------------------|--------------------------|


--1--------0--------3-----|-----3--------3-----------|
-----3--------3--------2--|--------2--------2-----2--|
--------3--------3--------|--2--------2--------2-----|
--------------------------|--------------------------|
--------------------------|--------------------------|
--------------------------|--------------------------|


--1--------0--------3-----|-----1--------0-----------|
-----3--------3--------3--|--------3--------3-----3--|
--------2--------2--------|--2--------2--------2-----|
--------------------------|--------------------------|
--------------------------|--------------------------|
--------------------------|--------------------------|


--1--------0--------3-----|-----3--------3-----------|
-----3--------3--------2--|--------2--------2-----2--|
--------3--------3--------|--2--------2--------2-----|
--------------------------|--------------------------|
--------------------------|--------------------------|
--------------------------|--------------------------|


--1--------0--------3-----|-----1--------0-----------|
-----3--------3--------3--|--------3--------3-----3--|
--------2--------2--------|--2--------2--------2-----|
--------------------------|--------------------------|
--------------------------|--------------------------|
--------------------------|--------------------------|


--1--------0--------3-----|-----3--------3-----(3)-----|
-----3--------3--------2--|--------2--------2--(2)-----|
--------3--------3--------|--2--------2--------(2)-----|
--------------------------|----------------------------|
--------------------------|----------------------------|
--------------------------|----------------------------|


  PM PM     PM       PM       PM        PM             
---------------------------|--------------------------|
---------------------------|--------------------------|
---------------------------|--------------------------|
--------10--------------8--|---------------------7----|
---------------7--8--------|-----10--8-----7--8-------|
--8--8------8--------8-----|--8---------8-------------|


  PM PM     PM       PM       PM        PM             
---------------------------|--------------------------|
---------------------------|--------------------------|
---------------------------|--------------------------|
--------10--------------8--|---------------------7----|
---------------7--8--------|-----10--8-----7--8-------|
--8--8------8--------8-----|--8---------8-------------|


  PM PM     PM       PM       PM        PM             
---------------------------|--------------------------|
---------------------------|--------------------------|
---------------------------|--------------------------|
--------10--------------8--|---------------------7----|
---------------7--8--------|-----10--8-----7--8-------|
--0--0------0--------0-----|--0---------0-------------|


  PM PM     PM       PM       PM        PM             
---------------------------|--------------------------|
---------------------------|--------------------------|
---------------------------|--------------------------|
--------10--------------8--|---------------------7----|
---------------7--8--------|-----10--8-----7--8-------|
--7--7------7--------7-----|--7---------7-------------|


  PM PM     PM       PM       PM        PM             
---------------------------|--------------------------|
---------------------------|--------------------------|
---------------------------|--------------------------|
--------10--------------8--|---------------------7----|
---------------7--8--------|-----10--8-----7--8-------|
--8--8------8--------8-----|--8---------8-------------|


  PM PM     PM       PM       PM        PM             
---------------------------|--------------------------|
---------------------------|--------------------------|
---------------------------|--------------------------|
--------10--------------8--|---------------------7----|
---------------7--8--------|-----10--8-----7--8-------|
--8--8------8--------8-----|--8---------8-------------|


  PM PM     PM       PM       PM        PM             
---------------------------|--------------------------|
---------------------------|--------------------------|
---------------------------|--------------------------|
--------10--------------8--|---------------------7----|
---------------7--8--------|-----10--8-----7--8-------|
--0--0------0--------0-----|--0---------0-------------|


  PM PM     PM       PM       PM        PM             
---------------------------|--------------------------|
---------------------------|--------------------------|
---------------------------|--------------------------|
--------10--------------8--|---------------------7----|
---------------7--8--------|-----10--8-----7--8-------|
--7--7------7--------7-----|--7---------7-------------|


---------------------------------|----------------------------|
---------------------------------|----------------------------|
--12--12--12--12--12-----10--10--|-----10--10-----9--9--9--9--|
---------------------------------|----------------------------|
--10--10--10--10--10------8---8--|------8---8-----7--7--7--7--|
---------------------------------|----------------------------|


------------------------------|--------------------------|
------------------------------|--------------------------|
--9--10--10--10--10-----9--9--|-----9--9-----6--6--6--6--|
------------------------------|--------------------------|
--7---8---8---8---8-----7--7--|-----7--7-----4--4--4--4--|
------------------------------|--------------------------|


---------------------------------|----------------------------|
---------------------------------|----------------------------|
--12--12--12--12--12-----10--10--|-----10--10-----9--9--9--9--|
---------------------------------|----------------------------|
--10--10--10--10--10------8---8--|------8---8-----7--7--7--7--|
---------------------------------|----------------------------|


------------------------------|--------------------------|
------------------------------|--------------------------|
--9--10--10--10--10-----9--9--|-----9--9-----6--6--6--6--|
------------------------------|--------------------------|
--7---8---8---8---8-----7--7--|-----7--7-----4--4--4--4--|
------------------------------|--------------------------|


--------------------------|--------------------------|
--------------------------|--------------------------|
--------------------------|--------------------------|
--8--8--8--8--8--8--8--8--|--8--8--8--8--8--8--8--8--|
--8--8--8--8--8--8--8--8--|--8--8--8--8--8--8--8--8--|
--8--8--8--8--8--8--8--8--|--8--8--8--8--8--8--8--8--|


--------------------------|--------------------------|
--------------------------|--------------------------|
--------------------------|--------------------------|
--8--8--8--8--8--8--8--8--|--8--8--8--8--8--8--8--8--|
--8--8--8--8--8--8--8--8--|--8--8--8--8--8--8--8--8--|
--8--8--8--8--8--8--8--8--|--8--8--8--8--8--8--8--8--|


--------------------------|--------------------------|
--------------------------|--------------------------|
--------------------------|--------------------------|
--0--0--0--0--0--0--0--0--|--0--0--0--0--0--0--0--0--|
--0--0--0--0--0--0--0--0--|--0--0--0--0--0--0--0--0--|
--0--0--0--0--0--0--0--0--|--0--0--0--0--0--0--0--0--|

        
--------------------------|--------------------------|-------------------|
--------------------------|--------------------------|-------------------|
--------------------------|--------------------------|-------------------|
--7--7--7--7--7--7--7--7--|--7--7--7--7--7--7--7--7--|--8----------------|
--7--7--7--7--7--7--7--7--|--7--7--7--7--7--7--7--7--|--8----------------|
--7--7--7--7--7--7--7--7--|--7--7--7--7--7--7--7--7--|--8----------------|

     
-------------------|-------------------|-------------------|
-------------------|-------------------|-------------------|
-------------------|-------------------|-------------------|
--L----------------|--L----------------|--L----------------|
--L----------------|--L----------------|--L----------------|
--L----------------|--L----------------|--L----------------|


-------------------------|-----------------------|-------------------------|
-------------------------|-----------------------|-------------------------|
-------------------------|-----------------------|-------------------------|
-------------------------|-----------------------|-------------------------|
-------------------------|-----------------------|-------------------------|
--0-0-0-----------0-0-0--|-------0-0-0-----------|--8-8-8-----------7-7-7--|


--------------------------|-------------------------|-----------------------|
--------------------------|-------------------------|-----------------------|
--------------------------|-------------------------|-----------------------|
--------------7-----------|-------------------------|-----------------------|
-----5--7--8-----8--7~----|-------------------------|-----------------------|
--------------------------|--0-0-0-----------0-0-0--|-------0-0-0-----------|


-------------------------|--------------------------|-------------------------|
-------------------------|--------------------------|-------------------------|
-------------------------|--------------------------|-------------------------|
-------------------------|--------------7-----------|-------------------------|
-------------------------|-----5--7--8-----8--7~----|-------------------------|
--8-8-8-----------7-7-7--|--------------------------|--0-0-0-----------0-0-0--|


-----------------------|-------------------------|--------------------------|
-----------------------|-------------------------|--------------------------|
-----------------------|-------------------------|--------------------------|
-----------------------|-------------------------|--------------7-----------|
-----------------------|-------------------------|-----5--7--8-----8--7~----|
-------0-0-0-----------|--8-8-8-----------7-7-7--|--------------------------|


-------------------------|-----------------------|-------------------------|
-------------------------|-----------------------|-------------------------|
-------------------------|-----------------------|-------------------------|
-------------------------|-----------------------|-------------------------|
-------------------------|-----------------------|-------------------------|
--0-0-0-----------0-0-0--|-------0-0-0-----------|--8-8-8-----------7-7-7--|


--------------------------|---------------------------------|
--------------------------|--13--11--10-------------13--11--|
--------------------------|--------------10--9--------------|
--------------7-----------|---------------------10----------|
-----5--7--8-----8--7~----|---------------------------------|
--------------------------|---------------------------------|


-----------------------------|---------------------------------|
--10-------------------------|--13--11--10-------------13--11--|
------10--9------------------|--------------10--9--------------|
-------------10--8--7--------|---------------------10----------|
-----------------------8--7--|---------------------------------|
-----------------------------|---------------------------------|


                                PM                PM    
-----------------------------|--------------------------|
--10-------------------------|--------------------------|
------10--9------------------|--------------------------|
-------------10--8--7--------|-----------7--8--7--------|
-----------------------8--7--|-----7--8--------------7--|
-----------------------------|--0-----------------0-----|


                               PM                PM     
----------------------------|--------------------------|
---------------------8--10--|--------------------------|
--------------9--10---------|--------------------------|
-----7--8--7----------------|-----------7--8--7--------|
--8-------------------------|-----7--8--------------7--|
----------------------------|--7-----------------7-----|


----------------------------|---------------------------------|
---------------------8--10--|--13--11--10-------------13--11--|
--------------9--10---------|--------------10--9--------------|
-----7--8--7----------------|---------------------10----------|
--8-------------------------|---------------------------------|
----------------------------|---------------------------------|


-----------------------------|---------------------------------|
--10-------------------------|--13--11--10-------------13--11--|
------10--9------------------|--------------10--9--------------|
-------------10--8--7--------|---------------------10----------|
-----------------------8--7--|---------------------------------|
-----------------------------|---------------------------------|


                                PM                PM     
-----------------------------|--------------------------|
--10-------------------------|--------------------------|
------10--9------------------|--------------------------|
-------------10--8--7--------|-----------7--8--7--------|
-----------------------8--7--|-----7--8--------------7--|
-----------------------------|--0-----------------0-----|


                               PM                PM     
----------------------------|--------------------------|
---------------------8--10--|--------------------------|
--------------9--10---------|--------------------------|
-----7--8--7----------------|-----------7--8--7--------|
--8-------------------------|-----7--8--------------7--|
----------------------------|--7-----------------7-----|


----------------------------|--------------------------|
---------------------8--10--|--------------------------|
--------------9--10---------|--------------------------|
-----7--8--7----------------|--8--8--8--8--8--8--8--8--|
--8-------------------------|--8--8--8--8--8--8--8--8--|
----------------------------|--8--8--8--8--8--8--8--8--|


--------------------------|--------------------------|
--------------------------|--------------------------|
--------------------------|--------------------------|
--8--8--8--8--8--8--8--8--|--0--0--0--0--0--0--0--0--|
--8--8--8--8--8--8--8--8--|--0--0--0--0--0--0--0--0--|
--8--8--8--8--8--8--8--8--|--0--0--0--0--0--0--0--0--|


--------------------------|--------------------------|
--------------------------|--------------------------|
--------------------------|--------------------------|
--7--7--7--7--7--7--7--7--|--8--8--8--8--8--8--8--8--|
--7--7--7--7--7--7--7--7--|--8--8--8--8--8--8--8--8--|
--7--7--7--7--7--7--7--7--|--8--8--8--8--8--8--8--8--|


--------------------------|--------------------------|
--------------------------|--------------------------|
--------------------------|--------------------------|
--8--8--8--8--8--8--8--8--|--0--0--0--0--0--0--0--0--|
--8--8--8--8--8--8--8--8--|--0--0--0--0--0--0--0--0--|
--8--8--8--8--8--8--8--8--|--0--0--0--0--0--0--0--0--|


--------------------------|---------------------------|
--------------------------|---------------------------|
--------------------------|-----------------------10--|
--7--7--7--7--7--7--7--7--|-----------5--8--5---------|
--7--7--7--7--7--7--7--7--|--5--7--8------------------|
--7--7--7--7--7--7--7--7--|---------------------------|


----------------------------|-----------------------------------------|
-----------------------10b--|---L--10----------------------------10b--|
---L--------9---------------|----------10h-12p-10p-9------------------|
------10---------10---------|------------------------10h--12----------|
----------------------------|-----------------------------------------|
----------------------------|-----------------------------------------|


-------------------------------------|---------------------------|
---L--10-----------------------------|---------------------------|
----------10h-12p-10p-9--------------|-----------------------10--|
------------------------10--8--------|-----------5--8--5---------|
-------------------------------12----|--5--7--8------------------|
-------------------------------------|---------------------------|


----------------------------|-----------------------------------------|
-----------------------10b--|---L--10----------------------------10b--|
---L--------9---------------|----------10h-12p-10p-9------------------|
------10---------10---------|------------------------10h--12----------|
----------------------------|-----------------------------------------|
----------------------------|-----------------------------------------|


-------------------------------------|---------------------------|
---L--10-----------------------------|---------------------------|
----------10h-12p-10p-9--------------|--------------10--9--------|
------------------------10--8--------|-----------8------------7--|
-------------------------------12----|--5--7--8------------------|
-------------------------------------|---------------------------|


                                PM PM                   PM PM  
-----------------------------|--------------------------------|
-----------------------------|--------------------------------|
--------10--9--------10--12--|--------10-12-10-9-10--9--------|
--8--7---------8--7----------|--------------------------------|
-----------------------------|--------------------------------|
-----------------------------|--0--0--------------------0--0--|


                                       PM PM       PM    PM PM  
------------------------------------|--------------------------|
------------------------------------|--------------------------|
--10-12-10-9-10--9------10----------|--------------------------|
--------------------12------12--10--|--------------------------|
------------------------------------|--------5--7-----5--------|
------------------------------------|--0--0--------0-----0--0--|


         PM         PM            PM PM               PM PM  
-------------------------------|----------------------------|
-------------------------------|----------------------------|
-------------------------------|----------------------------|
-------------------------------|----------------------------|
--8--10-----10--12-----12--10--|--------8--10--12--8--------|
---------0----------0----------|--0--0----------------0--0--|


----------------------------|--------------------------------|
----------------------------|--10--10-----10--10-----10--10--|
----------------------------|--10--10-----10--10-----10--10--|
----------------------------|---8---8------8---8------8---8--|
--7--10--7------5--8--5-----|---8---8------8---8------8---8--|
------------10-----------8--|---8---8------8---8------8---8--|


-------------------------|--------------------------------|
-----10--10--------------|--------------------------------|
-----10--10--------------|--10--10-----10--10-----10--10--|
------8---8--------------|---8---8------8---8------8---8--|
------8---8--------------|---8---8------8---8------8---8--|
------8---8--------------|---8---8------8---8------8---8--|


-------------------------|--------------------------------|
-------------------------|--------------------------------|
-----10--10--------------|--------------------------------|
------8---8--------------|--10--10-----10--10-----10--10--|
------8---8--------------|---8---8------8---8------8---8--|
------8---8--------------|---8---8------8---8------8---8--|

   
-------------------------|--------------------------|-----------------------|
-------------------------|--------------------------|-----------------------|
-------------------------|--------------------------|-----------------------|
-----10--10--------------|--8--8-----8--8-----8--8--|-----8--8--------------|
------8---8--------------|--8--8-----8--8-----8--8--|-----8--8--------------|
------8---8--------------|--8--8-----8--8-----8--8--|-----8--8--------------|


  PM PM PM PM PM PM PM PM                                      
------------------------------|-------------------|
------------------------------|-------------------|
------------------------------|-------------------|
------------------------------|-------------------|
--0--0--------------0--0------|-------------------|
--0--0--0--0--0--0--0--0------|-------------------|


  PM PM PM PM PM PM PM PM                                         
------------------------------|-------------------|
------------------------------|-------------------|
------------------------------|-------------------|
------------------------------|-------------------|
--0--0--------------0--0------|-------------------|
--0--0--0--0--0--0--0--0------|-------------------|


  PM PM PM PM PM PM PM PM                                         
------------------------------|--------------13------12----------|
------------------------------|--10--11--10------10------10------|
------------------------------|----------------------------------|
------------------------------|----------------------------------|
--0--0--------------0--0------|----------------------------------|
--0--0--0--0--0--0--0--0------|----------------------------------|


  PM PM PM PM PM PM PM PM PM       PM    PM PM                   
--------------------------------|-------------------------------|
--------------------------------|-------------------------------|
--------------------------------|-------------------------------|
-----------------------------8--|-----5-------------------------|
--0--0--------------0--0--0--8--|--0--5--0--0--7h-8p-7p-5-4--7--|
--0--0--0--0--0--0--0--0--0--8--|--0--5--0--0-------------------|


  PM PM PM PM PM PM PM PM                                          
------------------------------|--------------13------12----------|
------------------------------|--10--11--10------10------10------|
------------------------------|----------------------------------|
------------------------------|----------------------------------|
--0--0--------------0--0------|----------------------------------|
--0--0--0--0--0--0--0--0------|----------------------------------|


  PM PM PM PM PM PM PM PM PM       PM    PM PM                     
--------------------------------|-------------------------------|
--------------------------------|-------------------------------|
--------------------------------|-------------------------------|
-----------------------------8--|-----5-------------------------|
--0--0--------------0--0--0--8--|--0--5--0--0--7h-8p-7p-5-4--7--|
--0--0--0--0--0--0--0--0--0--8--|--0--5--0--0-------------------|


  PM PM PM PM PM PM PM PM                                          
------------------------------|--------------13------12----------|
------------------------------|--10--11--10------10------10------|
------------------------------|----------------------------------|
------------------------------|----------------------------------|
--0--0--------------0--0------|----------------------------------|
--0--0--0--0--0--0--0--0------|----------------------------------|


  PM PM PM PM PM PM PM       PM    PM PM                    
--------------------------|-------------------------------|
--------------------------|-------------------------------|
--------------------------|-------------------------------|
-----------------------8--|-----5-------------------------|
--0--0--0--0--0--0--0--8--|--0--5--0--0--7h-8p-7p-5-4--7--|
--0--0--0--0--0--0--0--8--|--0--5--0--0-------------------|


  PM PM PM PM PM PM PM PM                                         
------------------------------|--------------13------12----------|
------------------------------|--10--11--10------10------10------|
------------------------------|----------------------------------|
------------------------------|----------------------------------|
--0--0--------------0--0------|----------------------------------|
--0--0--0--0--0--0--0--0------|----------------------------------|


  PM PM PM PM PM PM PM PM PM       PM    PM PM                    
--------------------------------|-------------------------------|
--------------------------------|-------------------------------|
--------------------------------|-------------------------------|
-----------------------------8--|-----5-------------------------|
--0--0--------------0--0--0--8--|--0--5--0--0--7h-8p-7p-5-4--7--|
--0--0--0--0--0--0--0--0--0--8--|--0--5--0--0-------------------|


  PM PM PM PM PM PM PM PM                                         
------------------------------|--------------13------12----------|
------------------------------|--10--11--10------10------10------|
------------------------------|----------------------------------|
------------------------------|----------------------------------|
--0--0--------------0--0------|----------------------------------|
--0--0--0--0--0--0--0--0------|----------------------------------|


  PM PM PM PM PM PM PM PM PM       PM    PM PM                    
--------------------------------|-------------------------------|
--------------------------------|-------------------------------|
--------------------------------|-------------------------------|
-----------------------------8--|-----5-------------------------|
--0--0--------------0--0--0--8--|--0--5--0--0--7h-8p-7p-5-4--7--|
--0--0--0--0--0--0--0--0--0--8--|--0--5--0--0-------------------|


  PM PM PM PM PM PM    PM PM PM PM                          
-----------------------------------|-----|-----||
-----------------------------------|-----|-----||
-----------------------------------|-----|-----||
-----------------------------------|-----|-----||
-----------------------------------|-----|-----||
--0--0--0--0--0--0-----0--0--0--0--|-----|-----||




Guitar 2



                  PM    PM    PM       PM     PM     PM                
E||-------|-------------------------|---------------------------------|
B||-------|-------------------------|---------------------------------|
G||-------|-------------------------|---------------------------------|
D||-------|-------------------------|---------------------------------|
A||-------|--0-------5-----7-----8--|-----10-----12-----13h--15p--12--|
D||-------|--0----0-----0-----0-----|--0------0------0----------------|


               PM PM           PM                            PM    PM    PM     
-----------------------|-----------------------------|-------------------------|
-----------------------|-----------------------------|-------------------------|
-----------------------|-----------------------------|-------------------------|
-----------------------|-----------------------------|-------------------------|
--8----8--8----8--8----|--7-------7h--8p--7----------|--0-------5-----7-----8--|
--8----8--8----8--8----|--7----7-------------10p--7--|--0----0-----0-----0-----|


  PM     PM     PM                               PM PM    
---------------------------------|-----------------------|
---------------------------------|-----------------------|
---------------------------------|-----------------------|
---------------------------------|-----------------------|
-----10-----12-----13h--15p--12--|--8----8--8----8--8----|
--0------0------0----------------|--8----8--8----8--8----|


       PM                            PM    PM    PM     
-----------------------------|-------------------------|
-----------------------------|-------------------------|
-----------------------------|-------------------------|
-----------------------------|-------------------------|
--7-------7h--8p--7----------|--0-------5-----7-----8--|
--7----7-------------10p--7--|--0----0-----0-----0-----|


  PM     PM     PM                               PM PM    
---------------------------------|-----------------------|
---------------------------------|-----------------------|
---------------------------------|-----------------------|
---------------------------------|-----------------------|
-----10-----12-----13h--15p--12--|--8----8--8----8--8----|
--0------0------0----------------|--8----8--8----8--8----|


       PM                            PM    PM    PM     
-----------------------------|-------------------------|
-----------------------------|-------------------------|
-----------------------------|-------------------------|
-----------------------------|-------------------------|
--7-------7h--8p--7----------|--0-------5-----7-----8--|
--7----7-------------10p--7--|--0----0-----0-----0-----|


  PM     PM     PM                               PM PM    
---------------------------------|-----------------------|
---------------------------------|-----------------------|
---------------------------------|-----------------------|
---------------------------------|-----------------------|
-----10-----12-----13h--15p--12--|--8----8--8----8--8----|
--0------0------0----------------|--8----8--8----8--8----|


       PM                       PM PM PM PM PM PM    PM PM PM PM                       
-----------------------------|-----------------------------------|-----|-----|
-----------------------------|-----------------------------------|-----|-----|
-----------------------------|-----------------------------------|-----|-----|
-----------------------------|-----------------------------------|-----|-----|
--7-------7h--8p--7----------|-----------------------------------|-----|-----|
--7----7-------------10p--7--|--0--0--0--0--0--0-----0--0--0--0--|-----|-----|


-----|-----|-----|-----|-----|--(5)------(3)------(6)----|
-----|-----|-----|-----|-----|---------------------------|
-----|-----|-----|-----|-----|---------------------------|
-----|-----|-----|-----|-----|---------------------------|
-----|-----|-----|-----|-----|---------------------------|
-----|-----|-----|-----|-----|---------------------------|


--L--(5)------(3)----(5)----|--(6)------(6)------(5)----|
----------------------------|---------------------------|
----------------------------|---------------------------|
----------------------------|---------------------------|
----------------------------|---------------------------|
----------------------------|---------------------------|


--L--(5)------(5)--------|--(5)------(3)------(6)----|
-------------------------|---------------------------|
-------------------------|---------------------------|
-------------------------|---------------------------|
-------------------------|---------------------------|
-------------------------|---------------------------|


--L--(5)------(3)----(5)----|--(6)------(6)------(5)----|
----------------------------|---------------------------|
----------------------------|---------------------------|
----------------------------|---------------------------|
----------------------------|---------------------------|
----------------------------|---------------------------|


--L--(5)------(5)---------|-------------------------|-----------------------|
--------------------------|-------------------------|-----------------------|
--------------------------|-------------------------|-----------------------|
--------------------------|-------------------------|-----------------------|
--------------------------|-------------------------|-----------------------|
--------------------------|--0-0-0-----------0-0-0--|-------0-0-0-----------|


-------------------------|--------------------------|-------------------------|
-------------------------|--------------------------|-------------------------|
-------------------------|--------------------------|-------------------------|
-------------------------|--------------7-----------|-------------------------|
-------------------------|-----5--7--8-----8--7~----|-------------------------|
--8-8-8-----------7-7-7--|--------------------------|--0-0-0-----------0-0-0--|

 
-----------------------|-------------------------|--------------------------|
-----------------------|-------------------------|--------------------------|
-----------------------|-------------------------|--------------------------|
-----------------------|-------------------------|--------------7-----------|
-----------------------|-------------------------|-----5--7--8-----8--7~----|
-------0-0-0-----------|--8-8-8-----------7-7-7--|--------------------------|


-------------------------|-----------------------|-------------------------|
-------------------------|-----------------------|-------------------------|
-------------------------|-----------------------|-------------------------|
-------------------------|-----------------------|-------------------------|
-------------------------|-----------------------|-------------------------|
--0-0-0-----------0-0-0--|-------0-0-0-----------|--8-8-8-----------7-7-7--|


--------------------------|-------------------------|-----------------------|
--------------------------|-------------------------|-----------------------|
--------------------------|-------------------------|-----------------------|
--------------7-----------|-------------------------|-----------------------|
-----5--7--8-----8--7~----|-------------------------|-----------------------|
--------------------------|--0-0-0-----------0-0-0--|-------0-0-0-----------|


-------------------------|--------------------------|-------------------|
-------------------------|--------------------------|-------------------|
-------------------------|--------------------------|--7----------------|
-------------------------|--------------7-----------|--8----------------|
-------------------------|-----5--7--8-----8--7~----|--8----------------|
--8-8-8-----------7-7-7--|--------------------------|--8----------------|


-------------------|-------------------|-------------------|-------------------|
-------------------|-------------------|-------------------|-------------------|
--L----------------|--7----------------|--L----------------|--7----------------|
--L----------------|--8----------------|--L----------------|--0----------------|
--L----------------|--8----------------|--L----------------|--0----------------|
--L----------------|--8----------------|--L----------------|--0----------------|


-------------------|-------------------|-------------------|
-------------------|-------------------|-------------------|
--L----------------|--9----------------|--L----------------|
--L----------------|--7----------------|--L----------------|
--L----------------|--7----------------|--L----------------|
--L----------------|--7----------------|--L----------------|


  PM PM     PM       PM       PM        PM             
---------------------------|--------------------------|
---------------------------|--------------------------|
---------------------------|--------------------------|
--------10--------------8--|---------------------7----|
---------------7--8--------|-----10--8-----7--8-------|
--8--8------8--------8-----|--8---------8-------------|


  PM PM     PM       PM       PM        PM             
---------------------------|--------------------------|
---------------------------|--------------------------|
---------------------------|--------------------------|
--------10--------------8--|---------------------7----|
---------------7--8--------|-----10--8-----7--8-------|
--8--8------8--------8-----|--8---------8-------------|


  PM PM     PM       PM       PM        PM             
---------------------------|--------------------------|
---------------------------|--------------------------|
---------------------------|--------------------------|
--------10--------------8--|---------------------7----|
---------------7--8--------|-----10--8-----7--8-------|
--0--0------0--------0-----|--0---------0-------------|


  PM PM     PM       PM       PM        PM             
---------------------------|--------------------------|
---------------------------|--------------------------|
---------------------------|--------------------------|
--------10--------------8--|---------------------7----|
---------------7--8--------|-----10--8-----7--8-------|
--7--7------7--------7-----|--7---------7-------------|


---------------------------------|----------------------------|
---------------------------------|----------------------------|
--12--12--12--12--12-----10--10--|-----10--10-----9--9--9--9--|
---------------------------------|----------------------------|
--10--10--10--10--10------8---8--|------8---8-----7--7--7--7--|
---------------------------------|----------------------------|


------------------------------|--------------------------|
------------------------------|--------------------------|
--9--10--10--10--10-----9--9--|-----9--9-----6--6--6--6--|
------------------------------|--------------------------|
--7---8---8---8---8-----7--7--|-----7--7-----4--4--4--4--|
------------------------------|--------------------------|


---------------------------------|----------------------------|
---------------------------------|----------------------------|
--12--12--12--12--12-----10--10--|-----10--10-----9--9--9--9--|
---------------------------------|----------------------------|
--10--10--10--10--10------8---8--|------8---8-----7--7--7--7--|
---------------------------------|----------------------------|


------------------------------|--------------------------|
------------------------------|--------------------------|
--9--10--10--10--10-----9--9--|-----9--9-----6--6--6--6--|
------------------------------|--------------------------|
--7---8---8---8---8-----7--7--|-----7--7-----4--4--4--4--|
------------------------------|--------------------------|


----------------------------------|------------------------------|
----------------------------------|------------------------------|
--12--12--12--12--12--12--10--10--|--10--10--10--10--9--9--9--9--|
----------------------------------|------------------------------|
--10--10--10--10--10--10---8---8--|---8---8---8---8--7--7--7--7--|
----------------------------------|------------------------------|


--------------------------------|--------------------------|
--------------------------------|--------------------------|
--10--10--10--10--10--10--9--9--|--9--9--9--9--6--6--6--6--|
--------------------------------|--------------------------|
---8---8---8---8---8---8--7--7--|--7--7--7--7--4--4--4--4--|
--------------------------------|--------------------------|


----------------------------------|------------------------------|
----------------------------------|------------------------------|
--12--12--12--12--12--12--10--10--|--10--10--10--10--9--9--9--9--|
----------------------------------|------------------------------|
--10--10--10--10--10--10---8---8--|---8---8---8---8--7--7--7--7--|
----------------------------------|------------------------------|


--------------------------------|--------------------------|
--------------------------------|--------------------------|
--10--10--10--10--10--10--9--9--|--9--9--9--9--6--6--6--6--|
--------------------------------|--------------------------|
---8---8---8---8---8---8--7--7--|--7--7--7--7--4--4--4--4--|
--------------------------------|--------------------------|


--------------------|-------------------|--------------------|
--------------------|-------------------|--------------------|
--------------------|-------------------|--------------------|
--------------------|--7----------------|--------------------|
-----------8--------|-------------------|-----------8--------|
--8-----------------|-------------------|--8-----------------|


--------------------|-------------------------|-----------------------|
--------------------|-------------------------|-----------------------|
--------------------|-------------------------|-----------------------|
--7br---------------|-------------------------|---------------7-------|
--------------------|-------------------------|------------------8--7-|
--------------------|--0-0-0-----------0-0-0--|-------0-0-0-----------|



-------------------------|---------------------------|-------------------------|
-------------------------|---------------------------|-------------------------|
-------------------------|---------------------------|-------------------------|
-------------------------|---------------------------|-------------------------|
-------------------------|--------7--8--7------------|-------------------------|
--8-8-8-----------7-7-7--|-----7-----------10--7~----|--0-0-0-----------0-0-0--|


-----------------------|-------------------------|---------------------------|
-----------------------|-------------------------|---------------------------|
-----------------------|-------------------------|---------------------------|
---------------7-------|-------------------------|---------------------------|
------------------8--7-|-------------------------|--------7--8--7------------|
-------0-0-0-----------|--8-8-8-----------7-7-7--|-----7-----------10--7~----|


-------------------------|-----------------------|-------------------------|
-------------------------|-----------------------|-------------------------|
-------------------------|-----------------------|-------------------------|
-------------------------|---------------7-------|-------------------------|
-------------------------|------------------8--7-|-------------------------|
--0-0-0-----------0-0-0--|-------0-0-0-----------|--8-8-8-----------7-7-7--|


---------------------------|-------------------------|-----------------------|
---------------------------|-------------------------|-----------------------|
---------------------------|-------------------------|-----------------------|
---------------------------|-------------------------|---------------7-------|
--------7--8--7------------|-------------------------|------------------8--7-|
-----7-----------10--7~----|--0-0-0-----------0-0-0--|-------0-0-0-----------|


-------------------------|---------------------------|-------------------|
-------------------------|---------------------------|-------------------|
-------------------------|---------------------------|-------------------|
-------------------------|---------------------------|--8----------------|
-------------------------|--------7--8--7------------|--8----------------|
--8-8-8-----------7-7-7--|-----7-----------10--7~----|--8----------------|


--------------------|--------------------|-------------------|
--------------------|--------------------|-------------------|
--------------------|--------------------|-------------------|
---L----------------|--10----------------|--L----------------|
---L----------------|---8----------------|--L----------------|
---L----------------|---8----------------|--L----------------|


-------------------|-------------------|-------------------|-------------------|
-------------------|-------------------|-------------------|-------------------|
-------------------|-------------------|-------------------|-------------------|
--0----------------|--L----------------|--7----------------|--L----------------|
--0----------------|--L----------------|--7----------------|--L----------------|
--0----------------|--L----------------|--7----------------|--L----------------|


  PM                PM                                  
--------------------------|----------------------------|
--------------------------|---------------------8--10--|
--------------------------|--------------9--10---------|
-----------7--8--7--------|-----7--8--7----------------|
-----7--8--------------7--|--8-------------------------|
--8-----------------8-----|----------------------------|


  PM                PM                                  
--------------------------|----------------------------|
--------------------------|---------------------8--10--|
--------------------------|--------------9--10---------|
-----------7--8--7--------|-----7--8--7----------------|
-----7--8--------------7--|--8-------------------------|
--8-----------------8-----|----------------------------|


  PM                PM                                  
--------------------------|----------------------------|
--------------------------|---------------------8--10--|
--------------------------|--------------9--10---------|
-----------7--8--7--------|-----7--8--7----------------|
-----7--8--------------7--|--8-------------------------|
--0-----------------0-----|----------------------------|


  PM                PM                                  
--------------------------|----------------------------|
--------------------------|---------------------8--10--|
--------------------------|--------------9--10---------|
-----------7--8--7--------|-----7--8--7----------------|
-----7--8--------------7--|--8-------------------------|
--7-----------------7-----|----------------------------|


--------------------------|--------------------------|
--------------------------|--------------------------|
--------------------------|--------------------------|
--8--8--8--8--8--8--8--8--|--8--8--8--8--8--8--8--8--|
--8--8--8--8--8--8--8--8--|--8--8--8--8--8--8--8--8--|
--8--8--8--8--8--8--8--8--|--8--8--8--8--8--8--8--8--|


--------------------------|--------------------------|
--------------------------|--------------------------|
--------------------------|--------------------------|
--0--0--0--0--0--0--0--0--|--7--7--7--7--7--7--7--7--|
--0--0--0--0--0--0--0--0--|--7--7--7--7--7--7--7--7--|
--0--0--0--0--0--0--0--0--|--7--7--7--7--7--7--7--7--|


--------------------------|--------------------------|
--------------------------|--------------------------|
--------------------------|--------------------------|
--8--8--8--8--8--8--8--8--|--8--8--8--8--8--8--8--8--|
--8--8--8--8--8--8--8--8--|--8--8--8--8--8--8--8--8--|
--8--8--8--8--8--8--8--8--|--8--8--8--8--8--8--8--8--|


--------------------------|--------------------------|
--------------------------|--------------------------|
--------------------------|--------------------------|
--0--0--0--0--0--0--0--0--|--7--7--7--7--7--7--7--7--|
--0--0--0--0--0--0--0--0--|--7--7--7--7--7--7--7--7--|
--0--0--0--0--0--0--0--0--|--7--7--7--7--7--7--7--7--|


--------------------------|--------------------------|
--------------------------|--------------------------|
--------------------------|--------------------------|
--8--8--8--8--8--8--8--8--|--8--8--8--8--8--8--8--8--|
--8--8--8--8--8--8--8--8--|--8--8--8--8--8--8--8--8--|
--8--8--8--8--8--8--8--8--|--8--8--8--8--8--8--8--8--|


--------------------------|--------------------------|
--------------------------|--------------------------|
--------------------------|--------------------------|
--0--0--0--0--0--0--0--0--|--7--7--7--7--7--7--7--7--|
--0--0--0--0--0--0--0--0--|--7--7--7--7--7--7--7--7--|
--0--0--0--0--0--0--0--0--|--7--7--7--7--7--7--7--7--|


--------------------------|--------------------------|
--------------------------|--------------------------|
--------------------------|--------------------------|
--8--8--8--8--8--8--8--8--|--8--8--8--8--8--8--8--8--|
--8--8--8--8--8--8--8--8--|--8--8--8--8--8--8--8--8--|
--8--8--8--8--8--8--8--8--|--8--8--8--8--8--8--8--8--|


--------------------------|--------------------------|
--------------------------|--------------------------|
--------------------------|--------------------------|
--0--0--0--0--0--0--0--0--|--7--7--7--7--7--7--7--7--|
--0--0--0--0--0--0--0--0--|--7--7--7--7--7--7--7--7--|
--0--0--0--0--0--0--0--0--|--7--7--7--7--7--7--7--7--|


--------------------------|--------------------------|
--------------------------|--------------------------|
--------------------------|--------------------------|
--8--8--8--8--8--8--8--8--|--8--8--8--8--8--8--8--8--|
--8--8--8--8--8--8--8--8--|--8--8--8--8--8--8--8--8--|
--8--8--8--8--8--8--8--8--|--8--8--8--8--8--8--8--8--|


--------------------------|--------------------------|
--------------------------|--------------------------|
--------------------------|--------------------------|
--0--0--0--0--0--0--0--0--|--7--7--7--7--7--7--7--7--|
--0--0--0--0--0--0--0--0--|--7--7--7--7--7--7--7--7--|
--0--0--0--0--0--0--0--0--|--7--7--7--7--7--7--7--7--|


--------------------------|--------------------------|
--------------------------|--------------------------|
--------------------------|--------------------------|
--8--8--8--8--8--8--8--8--|--8--8--8--8--8--8--8--8--|
--8--8--8--8--8--8--8--8--|--8--8--8--8--8--8--8--8--|
--8--8--8--8--8--8--8--8--|--8--8--8--8--8--8--8--8--|


--------------------------|--------------------------|
--------------------------|--------------------------|
--------------------------|--------------------------|
--0--0--0--0--0--0--0--0--|--7--7--7--7--7--7--7--7--|
--0--0--0--0--0--0--0--0--|--7--7--7--7--7--7--7--7--|
--0--0--0--0--0--0--0--0--|--7--7--7--7--7--7--7--7--|


--------------------------------|-------------------------|
--10--10-----10--10-----10--10--|-----10--10--------------|
--10--10-----10--10-----10--10--|-----10--10--------------|
---8---8------8---8------8---8--|------8---8--------------|
---8---8------8---8------8---8--|------8---8--------------|
---8---8------8---8------8---8--|------8---8--------------|


--------------------------------|-------------------------|
--------------------------------|-------------------------|
--10--10-----10--10-----10--10--|-----10--10--------------|
---8---8------8---8------8---8--|------8---8--------------|
---8---8------8---8------8---8--|------8---8--------------|
---8---8------8---8------8---8--|------8---8--------------|


--------------------------------|-------------------------|
--------------------------------|-------------------------|
--------------------------------|-------------------------|
--10--10-----10--10-----10--10--|-----10--10--------------|
---8---8------8---8------8---8--|------8---8--------------|
---8---8------8---8------8---8--|------8---8--------------|


--------------------------|-----------------------|
--------------------------|-----------------------|
--------------------------|-----------------------|
--8--8-----8--8-----8--8--|-----8--8--------------|
--8--8-----8--8-----8--8--|-----8--8--------------|
--8--8-----8--8-----8--8--|-----8--8--------------|


  PM PM PM PM PM PM PM                             
------------------------------|-------------------|
------------------------------|-------------------|
------------------------------|-------------------|
------------------------------|-------------------|
--0--0--------------0--0------|--L----------------|
--0--0--0--0--0--0--0--0------|--L----------------|


  PM PM PM PM PM PM PM                             
------------------------------|-------------------|
------------------------------|-------------------|
------------------------------|-------------------|
------------------------------|-------------------|
--0--0--------------0--0------|--L----------------|
--0--0--0--0--0--0--0--0------|--L----------------|


  PM PM PM PM PM PM PM                             
------------------------------|-------------------|
------------------------------|-------------------|
------------------------------|-------------------|
------------------------------|-------------------|
--0--0--------------0--0------|--L----------------|
--0--0--0--0--0--0--0--0------|--L----------------|


  PM PM PM PM PM PM PM PM PM       PM    PM PM              
--------------------------------|--------------------------|
--------------------------------|--------------------------|
--------------------------------|--------------------------|
-----------------------------8--|-----5--------------------|
--0--0--------------0--0--0--8--|--0--5--0--0--------4~----|
--0--0--0--0--0--0--0--0--0--8--|--0--5--0--0--3--2--------|


  PM PM PM PM PM PM PM                             
------------------------------|-------------------|
------------------------------|-------------------|
------------------------------|-------------------|
------------------------------|-------------------|
--0--0--------------0--0------|--L----------------|
--0--0--0--0--0--0--0--0------|--L----------------|


  PM PM PM PM PM PM PM PM PM       PM    PM PM              
--------------------------------|--------------------------|
--------------------------------|--------------------------|
--------------------------------|--------------------------|
-----------------------------8--|-----5--------------------|
--0--0--------------0--0--0--8--|--0--5--0--0--------4~----|
--0--0--0--0--0--0--0--0--0--8--|--0--5--0--0--3--2--------|


  PM PM PM PM PM PM PM                               PM PM PM PM PM PM PM     
------------------------------|-------------------|--------------------------|
------------------------------|-------------------|--------------------------|
------------------------------|-------------------|--------------------------|
------------------------------|-------------------|-----------------------8--|
--0--0--------------0--0------|--L----------------|--0--0--0--0--0--0--0--8--|
--0--0--0--0--0--0--0--0------|--L----------------|--0--0--0--0--0--0--0--8--|


  PM    PM PM                PM PM PM PM PM PM PM                             
--------------------------|------------------------------|-------------------|
--------------------------|------------------------------|-------------------|
--------------------------|------------------------------|-------------------|
-----5--------------------|------------------------------|-------------------|
--0--5--0--0--------4~----|--0--0--------------0--0------|--L----------------|
--0--5--0--0--3--2--------|--0--0--0--0--0--0--0--0------|--L----------------|


  PM PM PM PM PM PM PM PM PM       PM    PM PM              
--------------------------------|--------------------------|
--------------------------------|--------------------------|
--------------------------------|--------------------------|
-----------------------------8--|-----5--------------------|
--0--0--------------0--0--0--8--|--0--5--0--0--------4~----|
--0--0--0--0--0--0--0--0--0--8--|--0--5--0--0--3--2--------|


  PM PM PM PM PM PM PM                             
------------------------------|-------------------|
------------------------------|-------------------|
------------------------------|-------------------|
------------------------------|-------------------|
--0--0--------------0--0------|--L----------------|
--0--0--0--0--0--0--0--0------|--L----------------|


  PM PM PM PM PM PM PM PM PM       PM    PM PM              
--------------------------------|--------------------------|
--------------------------------|--------------------------|
--------------------------------|--------------------------|
-----------------------------8--|-----5--------------------|
--0--0--------------0--0--0--8--|--0--5--0--0--------4~----|
--0--0--0--0--0--0--0--0--0--8--|--0--5--0--0--3--2--------|


  PM PM PM PM PM PM    PM PM PM PM                     
-----------------------------------|-----|-----------||
-----------------------------------|-----|-----------||
-----------------------------------|-----|-----------||
-----------------------------------|-----|-----------||
-----------------------------------|-----|-----------||
--0--0--0--0--0--0-----0--0--0--0--|-----|-----------||



Tablature Legend
----------------
L - tied note
n) - ghost note
h - hammer on
p - pull off
b - bend
br - bendRelease
PM - palm mute
~ - vibrato

            
            
Suggest correction
Creating personal tab
Creating personal tab
You can edit any tab online and save it as your Personal.

You can edit, replace or remove any tab part or add personal notes – all changes will be seen only by you.

Personal tabs can be accessed anytime from any device, even offline.
Learn more »
comments
print report bad tab
1 comment total.
0 reply
SonsOfWar69 10 Oct 01, 2009 02:30 PM

Dude that is basically the whole thing.
THATS FREAKIN' AWESOME!
UR ARE FREAKIN' Fantastic.
THANX
hope so see some more tabs soon.
PEACE!!!!

guest
You may want to rate the tab now too:
select rating
Wanna post a correction for this tab? Suggest correction