Oops, an error
Loading. Please wait.

Again solo tab

version 1
version 1

Solo

Interactive

3,738 views 3 this week
2 commentsread comments
1 2 3 4 5
2 more votes to show rating
add to favorites
×
Save as Personal and add changes to this tab that will be seen only by you. Learn more ›
×
You can save this tab as Personal to edit and correct it or add notes. All changes will be seen only by you. Learn more »
launch autoscroll
font size
0
reset
how to read this tab
guitar tuner
edit
Autoscroll
slow
fast
+/-
esc
set tempo
stop
e|--------------------------------------------------|
B|----------------7/9-7-6-7-9-7-6-------------------|
G|--8-6-8-9^--6--------------------9^--6------------|
D|--------------------------------------------------|
A|--------------------------------------------------|
E|--------------------------------------------------|


e|--------------------------------------------------|
B|--7-9-7-10-7-11--12-11-10-12-11-10-12-11-10-------|
G|--------------------------------------------------|
D|--------------------------------------------------|
A|--------------------------------------------------|
E|--------------------------------------------------|


e|--------------------------------------------------|
B|--12-11-12-11-12-11-10-12-11-10-12-11-10-9-9-8----|
G|-----------------------------------------------9^-|
D|--------------------------------------------------|
A|--------------------------------------------------|
E|--------------------------------------------------|


e|--------------------------------------------------|
B|-----7/9--4-5--4-5-4--4-5-4--2/-------------------|
G|--6-----------------------------------------------|
D|--------------------------------------------------|
A|--------------------------------------------------|
E|--------------------------------------------------|

            
            
Suggest correction
Creating personal tab
Creating personal tab
You can edit any tab online and save it as your Personal.

You can edit, replace or remove any tab part or add personal notes – all changes will be seen only by you.

Personal tabs can be accessed anytime from any device, even offline.
Learn more »
Give kudos to tab author, rate the tab!
1 2 3 4 5
comments
print report bad tab
2 comments total.
0 reply
x_bass009 163 Nov 18, 2008 04:54 PM

you suck

0 reply
A7X_nightmare12 72 Jun 15, 2010 09:18 PM

Hey? If you have a GP5 you could try my guitar pro tab Again - Faber Drive
and tell me if it sounds bad or good.

A7x_Nightmare12

guest
Wanna post a correction for this tab? Suggest correction