Oops, an error
Loading. Please wait.

Adorarte bass

version 2
version 2

Whole song

69 views 1 this week
no commentswrite comment
1 2 3 4 5
3 more votes to show rating
add to favorites
×
Save as Personal and add changes to this tab that will be seen only by you. Learn more ›
×
You can save this tab as Personal to edit and correct it or add notes. All changes will be seen only by you. Learn more »
launch autoscroll
font size
0
reset
guitar tuner
edit
Autoscroll
slow
fast
+/-
esc
set tempo
stop
Intro:
B-----------------------------------------|
E--3--5--1--------------------------------|
A-----------3-----------------------------|
D-----------------------------------------|
G-----------------------------------------|

 Estrofa:
Adorarte, yo quiero adorarte
B-----------------------------------------|
E--3-3-3-5-5-5-3-0-1-1-1------------------|
A------------------------1--3-------------|
D-----------------------------------------|
G-----------------------------------------|
  bendecirte, yo quiero bendecirte
B-----------------------------------------|
E--3-3-3-5-5-5-3-0--1-1-1-----------------|
A------------------------1--3-------------|
D-----------------------------------------|
G-----------------------------------------|
  Exaltarte, yo quiero exaltarte
B---------------------------------------------------|
E--3-3-3-5-5-5---------5-3-1-1-1---------------5-3--|
A------------------3-5-----------1--3------3-5------|
D--------------5-7---------------------5-7----------|
G---------------------------------------------------|

   Coro:
B-----------------------------------------------|
E--3-3-3-5-5-5-----7-5-3-1-1-1------------------|
A--------------7-5-------------1--3-------------|
D-----------------------------------------------|
G-----------------------------------------------|

  Estrofa
Adorarte, yo quiero adorarte
B-----------------------------------------|
E--3-3-3-5-5-5-3-0-1-1-1------------------|
A------------------------1--3-------------|
D-----------------------------------------|
G-----------------------------------------|
  bendecirte, yo quiero bendecirte
B---------------------------------------------------|
E--3-3-3-5-5-5---------5-3-1-1-1---------------5-3--|
A------------------3-5-----------1--3------3-5------|
D--------------5-7---------------------5-7----------|
G---------------------------------------------------|
  Exaltarte, yo quiero exaltarte
B---------------------------------------------------|
E--3-3-3-5-5-5---------5-3-1-1-1---------------5-3--|
A------------------3-5-----------1--3------3-5------|
D--------------5-7---------------------5-5----------|
G---------------------------------------------------|
  Coro es igual o le pueden poner adorno:
   como el slap. o mudar las cuerdas.


Dios les bendiga espero y les sirva de ayuda. cualquier duda o enquitud
escribanme a mi correo: fidelucho@

            
            
Suggest correction
Creating personal tab
Creating personal tab
You can edit any tab online and save it as your Personal.

You can edit, replace or remove any tab part or add personal notes – all changes will be seen only by you.

Personal tabs can be accessed anytime from any device, even offline.
Learn more »
Give kudos to tab author, rate the tab!
1 2 3 4 5
comments
print report bad tab
guest
Wanna post a correction for this tab? Suggest correction