Oops, an error
Loading. Please wait.

Kifak Enta chords

by Fairuz
847 views 48 this week
no commentswrite comment
1 2 3 4 5
2 more votes to show rating
add to favorites
×
Save as Personal and add changes to this tab that will be seen only by you. Learn more ›
×
You can save this tab as Personal to edit and correct it or add notes. All changes will be seen only by you. Learn more »
launch autoscroll
font size
0
reset
transpose
0
reset
display chords
guitar tuner
edit
Autoscroll
slow
fast
+/-
esc
set tempo
stop
Strumming
There is no strumming pattern for this song yet. and get +5 IQ
[Intro] 
E|----------------------------------------------------------|
B|--------1-1---3-3-3---1-1-1---0-0-------------------------|
G|------0---------------------------------------------------|
D|----2-----------------------------------------------------|       (x4)
A|--3-------------------------------------------------------|
E|----------------------------------------------------------|

[Verse 1]
C             Am    G       F
Btezkor akher marra cheftak senta
C             Am    G      F
Btezkor waata akher kelmeh elta
G
W ma 3edet cheftak
F
W halla2 cheftak
C            G      F
Kifak enta malla enta

[Verse 2]
C             Am    G      F
Btezkor akher sahra sherta 3enna
C             Am      G      F
Btezkor kan fi wehdeh mdayaa menna
G
Haydeh emmi
F
Bte3tal hammi
C             G      F
Mennak enta malla enta

[Chorus]
Am        C          G          F
Kifak al 3am bi oulo sar 3endak wlad
Dm                        G         C
Ana walla kent mfakkertak barrat l blad
Am        C          G          F
Kifak al 3am bi oulo sar 3endak wlad
Dm                        G         C
Ana walla kent mfakkertak barrat l blad
G
Chou baddi bel blad
F
Allah ykhalli l wlad eh
C           G       F
Kifak enta malla enta
Am         C     G     F
Byetla3 3a bali erja3 ana wiyyak
Am   C        G    F
Enta halali erja3 ana wiyyak
C          G       F
Ana wenta malla enta
Am         C     G     F
Byetla3 3a bali erja3 ana wiyyak
Am   C        G    F
Enta halali erja3 ana wiyyak
C          G       F
Ana wenta malla enta

[Instrumental]
E|----------------------------------------------------------|
B|--------1-1---3-3-3---1-1-1---0-0-------------------------|
G|------0---------------------------------------------------|
D|----2-----------------------------------------------------|       (x4)
A|--3-------------------------------------------------------|
E|----------------------------------------------------------|

[Verse 3]
C             Am    G       F
Btezkor akher marra chou eltelli
C            Am     G     F
Baddik dalli baddik fiki tfelli
G
Z3elt bwa2ta
F
W ma 7allalta
C         G      F
Enno enta hayda enta

[Chorus]
Am         C      G        F
Bterja3 3a rassi raghm l 3iyal wel nass
Am      C      G        F
Enta l assasi w bhebbak bel assas
C            G       F
Bhebbak enta malla enta
Am         C      G        F
Bterja3 3a rassi raghm l 3iyal wel nass
Am      C      G        F
Enta l assasi w bhebbak bel assas
C            G       F
Bhebbak enta malla enta
G       F
Hayda enta
G     F
Malla enta
G       C
B7ebbak enta

            
            
Suggest correction
Creating personal tab
Creating personal tab
You can edit any tab online and save it as your Personal.

You can edit, replace or remove any tab part or add personal notes – all changes will be seen only by you.

Personal tabs can be accessed anytime from any device, even offline.
Learn more »
Give kudos to tab author, rate the tab!
1 2 3 4 5
comments
print report bad tab
guest
You may want to rate the tab now too:
select rating
Wanna post a correction for this tab? Suggest correction