Oops, an error
Loading. Please wait.

Tiempo A Destiempo chords

version 2
version 2

Whole song

by FALC
17 views 1 this week
no commentswrite comment
1 2 3 4 5
3 more votes to show rating
add to favorites
×
Save as Personal and add changes to this tab that will be seen only by you. Learn more ›
×
You can save this tab as Personal to edit and correct it or add notes. All changes will be seen only by you. Learn more »
launch autoscroll
font size
0
reset
transpose
0
reset
simplify chords
display chords
guitar tuner
edit
Autoscroll
slow
fast
+/-
esc
set tempo
stop
Strumming
There is no strumming pattern for this song yet. and get +5 IQ
Espero les guste esta canción de esta bandota

Intro:

   F#5           D5
e-----------------------------------------------
B-----------------------------------------------
G-----------------------------------------------
D----------------7------------------------------
A--4-------------5------------------------------
E--2--------------------------------------------

e--------------------------------------------------------
B--------------------------------------------------------
G--------------------------------------------------------
D---------------------------------------------------------
A---------------9-12-14-12-9-----------------9-12-14-12-9-
E-9-12-14-12-9-----------------9-12-14-12-9----------------


F#                  D
Fuego sin amor se marchito
F#                  D
Sabemos tú y yo que no vale
F#5                 D5
Pintaste de azul el cielo más severo
F#5                   D5               A5
Lagrima celestial no quiero recogerla
B5             D5               E5
Caminos que se van hacia ningún lugar

F#5
Esto no puede seguir
         D5
Invierno sin calor
F#5
Esto no puede seguir
      D5
Ocaso sin color


e--------------------------------------------------------
B--------------------------------------------------------
G--------------------------------------------------------
D---------------------------------------------------------
A--9-12-14-12-9--------------------9-12-14-12-9----------
E------------------9-12-14-12-9--------------------------


F#
Pequeño talismán
    D
Que al final
F#
Sabrá atesorar
   D
Mi corazón
F#5
Recuerdos en tu piel
   D5
Se rompen direcciones
F#5
Un barco en tempestad
     D5          A5
Y yo su capitán


B5             D5               E5
Caminos que se van hacia ningún lugar
F#5
Esto no puede seguir
         D5
Invierno sin calor
F#5
Esto no puede seguir
      D5
Ocaso sin color

F#5
Esto no puede seguir
         D5
Infierno sin compasión
F#5
Esto no puede seguir
       D5
Tiempo a Destiempo


Cualquier comentario o sugerencia me escriben al mail Gracias
¡!!!Que Viva Ecuador!!!!!!

            
            
Suggest correction
Creating personal tab
Creating personal tab
You can edit any tab online and save it as your Personal.

You can edit, replace or remove any tab part or add personal notes – all changes will be seen only by you.

Personal tabs can be accessed anytime from any device, even offline.
Learn more »
Give kudos to tab author, rate the tab!
1 2 3 4 5
comments
print report bad tab
guest
Wanna post a correction for this tab? Suggest correction