Oops, an error
Loading. Please wait.
We have an official Centuries tab made by UG professional guitarists. Check out the tab »
×

Centuries tab

version 6
version 6

Whole song

Interactive

550 views 15 this week
no commentswrite comment
1 2 3 4 5
1 last vote to show rating
add to favorites
×
Save as Personal and add changes to this tab that will be seen only by you. Learn more ›
×
You can save this tab as Personal to edit and correct it or add notes. All changes will be seen only by you. Learn more »
launch autoscroll
font size
0
reset
how to read this tab
guitar tuner
edit
Autoscroll
slow
fast
+/-
esc
set tempo
stop
Author
Difficulty
About this tab version
This is just a very different way of playing centuries. For people who want some pizzaz in their generic Fall Out Boy song(tm). Was this info helpful? Yes No
This was created with the help of my great guitar techer, Steve. (thanks steve you are great)
For a different way to play Centuries by Fall Out Boy

[Intro]
e|---------------------------------------------------------------------------|
B|-------0--------0----0--------0--------------------------------------------|
G|-----0--------0---------2-0-2---2-0----------------------------------------|
D|-2-4------2-4------2-------------------------------------------------------|
A|---------------------------------------------------------------------------|
E|---------------------------------------------------------------------------|

Em
Some legends are told
G
Some turn to dust or to gold
C
But you will remember me
Am              D
Remember me for centuries
Em
And just one mistake
G
Is all it will take
C
We'll go down in history
Am              D
Remember me for centuries
 
e|-7-------------------------------3-----------------------------------------|
B|---------------------------------------------------------------------------|
G|---------------------------------------------------------------------------|
D|---------------------------------------------------------------------------|
A|---------------------------------------------------------------------------|
E|-0-------------------------------3-----------------------------------------|
Mummified my teenage dreams        No there's nothing wrong with me

e|-5-------------------------------3-----------------------------------------|
B|---------------------------------------------------------------------------|
G|---------------------------------------------------------------------------|
D|---------------------------------------------------------------------------|
A|---------------------------------------------------------------------------|
E|-0-------------------------------3-----------------------------------------|
The kids are all wrong             The story's all off

[Chorus]
e|-5-------------------------------3-----------------------------------------|
B|---------------------------------------------------------------------------|
G|---------------------------------------------------------------------------|
D|---------------------------------------------------------------------------|
A|---------------------------------------------------------------------------|
E|-0-------------------------------0-----------------------------------------|
Heavy metal broke my   (bang bang) Heart

e|-5/7-5/7-----------3--------------5---------------------------------3-------|
B|----------------------------------------------------------------------------|
G|----------------------------------------------------------------------------|
D|----------------------------------------------------------------------------|
A|----------------------------------------------------------------------------|
E|-0-----------------3--------------0---------------------------------0-----3-|
Come on come on and let me in      The bruises on your thighs like my fingertip

e|-5--------------------------------3----------------------------------------|
B|---------------------------------------------------------------------------|
G|---------------------------------------------------------------------------|
D|---------------------------------------------------------------------------|
A|---------------------------------------------------------------------------|
E|-0--------------------------------3----------------------------------------|
and this is for tonight            I though tht you would feel

e|-3-------------------------------------------------------------------------|
B|---------------------------------------------------------------------------|
G|---------------------------------------------------------------------------|
D|---------------------------------------------------------------------------|
A|---------------------------------------------------------------------------|
E|-0-------------------------------------------------------------------------|
I never meant for you to fix yourself 

e|---------------------------------------------------------------------------|
B|-------0--------0----0--------0--------------------------------------------|
G|-----0--------0---------2-0-2---2-0----------------------------------------|
D|-2-4------2-4------2-------------------------------------------------------|
A|---------------------------------------------------------------------------|
E|---------------------------------------------------------------------------|

Em
Some legends are told
G
Some turn to dust or to gold
C
But you will remember me
Am              D
Remember me for centuries
Em
And just one mistake
G
Is all it will take
C
We'll go down in history
Am              D
Remember me for centuries
(same chords for the heeyy ya oh yeahahah)
Am              D
Remember me for centuries

e|------------7--------------------------------------------------------------|
B|---------------------------------------------------------------------------|
G|---------------------------------------------------------------------------|
D|---------------------------------------------------------------------------|
A|---------------------------------------------------------------------------|
E|------------0--------------------------------------------------------------|
And I can't stop till the whole world knows my name

e|-3--------------------------------------------------------------------------|
B|---------------------------------------------------------------------------|
G|---------------------------------------------------------------------------|
D|---------------------------------------------------------------------------|
A|---------------------------------------------------------------------------|
E|-3--------------------------------------------------------------------------|
Cause I was only born inside my dreams

e|-5-5/7-----------------------------3---------------------------------------|
B|---------------------------------------------------------------------------|
G|---------------------------------------------------------------------------|
D|---------------------------------------------------------------------------|
A|---------------------------------------------------------------------------|
E|-0-0-------------------------------3---------------------------------------|
Until you die for me                as long as there's a light

e|-5-----------------------3---------0---------------------------------------|
B|---------------------------------------------------------------------------|
G|---------------------------------------------------------------------------|
D|---------------------------------------------------------------------------|
A|---------------------------------------------------------------------------|
E|-0-----------------------3---------0---------------------------------------|
My shadow's over you cause I-I am   the opposie of amnesia

e|-7---------------------------------3---------------------------------------|
B|---------------------------------------------------------------------------|
G|---------------------------------------------------------------------------|
D|---------------------------------------------------------------------------|
A|---------------------------------------------------------------------------|
E|-0---------------------------------3---------------------------------------|
You're my cherry blossom            you're about to bloom

e|-5--------------------------------------------------------------------------|
B|---------------------------------------------------------------------------|
G|---------------------------------------------------------------------------|
D|---------------------------------------------------------------------------|
A|---------------------------------------------------------------------------|
E|-0--------------------------------------------------------------------------|
You look so pretty but you go so soon

e|---------------------------------------------------------------------------|
B|-------0--------0----0--------0--------------------------------------------|
G|-----0--------0---------2-0-2---2-0----------------------------------------|
D|-2-4------2-4------2-------------------------------------------------------|
A|---------------------------------------------------------------------------|
E|---------------------------------------------------------------------------|

Em
Some legends are told
G
Some turn to dust or to gold
C
But you will remember me
Am              D
Remember me for centuries
Em
And just one mistake
G
Is all it will take
C
We'll go down in history
Am              D
Remember me for centuries
(same chords for the heeyy ya oh yeahahah)
Am              D
Remember me for centuries

e|-0--------------3---------------5----------------=--3----------------------|
B|---------------------------------------------------------------------------|
G|---------------------------------------------------------------------------|
D|---------------------------------------------------------------------------|
A|---------------------------------------------------------------------------|
E|-0--------------3---------------0-------------------0----------------------|
We've been here   forever and    here's the frozen    proof

e|-0-0-0-0-----------3-3-3-3--------------5-5-5-5-------------------3--------|
B|---------------------------------------------------------------------------|
G|---------------------------------------------------------------------------|
D|---------------------------------------------------------------------------|
A|---------------------------------------------------------------------------|
E|-0-0-0-0-----------3-3-3-3--------------0-0-0-0-------------------0--------|
I... could scream    forever we           are the poision           youth

Em
Some legends are told
G
Some turn to dust or to gold
C
But you will remember me
Am              D
Remember me for centuries
Em
And just one mistake
G
Is all it will take
C
We'll go down in history
Am              D
Remember me for centuries
(same chords for the heeyy ya oh yeahahah)
Am              D
Remember me for centuries

(If you want to pluck the chorus it goes like this:)
e|-3-2-0-0--0-----3-2-0-0--0-0-0-0-7-7----0--0-7-7---0-7-7-------------------|
B|---------0---0-----------------------0---0-------0-------------------------|
G|---------------------------------------------------------------------------|
D|---------------------------------------------------------------------------|
A|---------------------------------------------------------------------------|
E|-0--------------0----------------------------------------------------------|



************************************

| /  Slide up
************************************

            
            
Suggest correction
Creating personal tab
Creating personal tab
You can edit any tab online and save it as your Personal.

You can edit, replace or remove any tab part or add personal notes – all changes will be seen only by you.

Personal tabs can be accessed anytime from any device, even offline.
Learn more »
Give kudos to tab author, rate the tab!
1 2 3 4 5
comments
print report bad tab
guest
You may want to rate the tab now too:
select rating
Wanna post a correction for this tab? Suggest correction