Oops, an error
Loading. Please wait.

Disloyal Order Of Water Buffaloes bass

version 1
version 1

Whole song

Interactive

12,751 views 66 this week
4 commentsread comments
1 2 3 4 5
x 16
add to favorites
×
Save as Personal and add changes to this tab that will be seen only by you. Learn more ›
×
You can save this tab as Personal to edit and correct it or add notes. All changes will be seen only by you. Learn more »
launch autoscroll
font size
0
reset
guitar tuner
edit
Autoscroll
slow
fast
+/-
esc
set tempo
stop
-------------------------------------------------------------------------------
			     Disloyal Order of Water Buffaloes
-------------------------------------------------------------------------------

Tabbed By: Valerie Louie
e-mail: queefist@yahoo.com
Tuning: Drop D

Intro Verse
G|----------------| |---------------|
D|----------------| |---------------|
A|----------------| |---------------|
D|12\--0~----7-5~-| |--0~------7-5~-| x4

Verse "Put him in the back of a squad car."
G|------------------------------------------|
D|------------------------------------------|
A|-----7777------9999------77-55------55-44-|
D|9999------7777------5555-------7777-------|

"hey editor!"
G|----------------------------------------|
D|----------------------------------------|
A|-----7777------9999------77-55----------|
D|9999------7777------5555-------77777777-|

Pre-chorus "i'm the loose bolt of a complete machine"
G|---7~-------9~-----76---9-7-6---|
D|5~----5/7~-----7-9----7-------7-|
A|--------------------------------|
D|--------------------------------|

G|---7~-------9~--------------------|
D|5~----5/7~-----7--9~--7~----------|
A|----------------------------------|
D|-------------------------5~-------|

Chorus "So boycott love..."
G|---------------------------------------|
D|---------------------------------------|
A|--------------------------------999-77-|
D|-00000000-55555555-99999999-777--------| x2

G|----------------------------------------------------------------------------------|
D|----------------------------------------------------------------------------------|
A|-------------------------------------99999999-1010101010101010--------------------|
D|-00000000-55555555-99999999-77777777---------------------------99999999-7777777777| 

Intro
G|------------|
D|------------|
A|------------|
D|-0~---7-5~--| x2

Verse
G|---------------------------------------|
D|---------------------------------------|
A|---------------------------------------|
D|-0000000000000000-77-55555555555555555-|x2

Verse "Paying tolls.."
G|------------------------------------------|
D|------------------------------------------|
A|-----7777------9999------77-55------55-44-|
D|9999------7777------5555-------7777-------|

"Rookies leave your badge"
G|----------------------------------------|
D|----------------------------------------|
A|-----7777------9999------77-55----------|
D|9999------7777------5555-------77777777-|

Pre-chorus "i'm the loose bolt of a complete machine"
G|---7~-------9~-----76---9-7-6--|
D|5~----5/7~-----7-9----7------7-|
A|-------------------------------|
D|-------------------------------|

G|---7~-------9~-------------------------6~-7~-9~--|
D|5~----5/7~-----7--9~--7~---5~--7~--9~------------|
A|-------------------------------------------------|
D|-------------------------------------------------|

Chorus "Boycott love"
G|---------------------------------------|
D|---------------------------------------|
A|--------------------------------999-77-|
D|-00000000-55555555-99999999-777--------| x2

G|----------------------------------------------------------------------------------|
D|----------------------------------------------------------------------------------|
A|-------------------------------------99999999-1010101010101010--------------------|
D|-00000000-55555555-99999999-77777777---------------------------99999999-7777777777|

Outtro "Detox just to retox"
G|--------------|
D|--------------|
A|--------------|
D|-0~-----------|

"so boycott love.."
G|-----------------------------------|
D|-----------------------------------|
A|-----------------------------------|
D|00000000-55555555-99999999-77777777|

G|-------------------------------------|
D|-------------------------------------|
A|--------------------------999-777-55-|
D|00000000-55555555-99999999-----------|

"imperfect boys with their imperfect ploys"
G|-----------------------------------|
D|-----------------------------------|
A|-----------------------------------|
D|00000000-55555555-99999999-77777777|

"nobody wants to hear you sing about tragedy"
G|-------------------------------------------|     |-----|
D|-------------------------------------------|     |-----|
A|99999999-1010101010101010------------------|     |-----|
D|-------------------------99999999-77777777-| x2  |-0~--|


I'd really appreciate it if you left some feedback.  
Comment and rate please. Thanks!

            
            
Suggest correction
Creating personal tab
Creating personal tab
You can edit any tab online and save it as your Personal.

You can edit, replace or remove any tab part or add personal notes – all changes will be seen only by you.

Personal tabs can be accessed anytime from any device, even offline.
Learn more »
comments
print report bad tab
4 comments total. Showing first comments.
0 reply
Lemurs4mangos 1,616 Dec 13, 2008 06:30 AM

Great Tab, love the song too.

0 reply
Jay Sanderson 272 May 03, 2009 08:27 AM

nice tab. well done :]

0 reply
fender fan13 10 Aug 05, 2009 07:06 PM

u were right but instead xxxx its supposed to b xx if tht makes sense

guest
You may want to rate the tab now too:
select rating
Wanna post a correction for this tab? Suggest correction