Oops, an error
Loading. Please wait.

Grenade Jumper tab

version 2
version 2

Whole song

Interactive

7,071 views 9 this week
7 commentsread comments
1 2 3 4 5
x 10
add to favorites
×
Save as Personal and add changes to this tab that will be seen only by you. Learn more ›
×
You can save this tab as Personal to edit and correct it or add notes. All changes will be seen only by you. Learn more »
launch autoscroll
font size
0
reset
how to read this tab
guitar tuner
edit
Autoscroll
slow
fast
+/-
esc
set tempo
stop
Fall Out Boy - Grenade Jumper
Take This To You Grave

this is by far on of my favorite songs by Fall Out Boy. i love playing this song,
and its a great cover. near the end there are 3 guitar parts, but as long as you
have the main rhythm guitar playing, it sounds awesome. drop d tuning. just read
the tab all the way through.

 Key:

 / - slide up
 \ - slide down
 h - hammer-on
 p - pull-off
 . - palm-mute
 x - left hand mute
 + - harmonics
 ~ - let it ring
 t - triplets
 e - eleventh fret (so everything lines up correctly)
(5)- ghost note
x\x- pickslide  


---------------------------------------------------------------------------------
Intro

   1 + 2 + 3 + 4 +   1 + 2 + 3 + 4 +   1 + 2 + 3 + 4 +   1 + 2 + 3 + 4 +
E|-----------------|-----------------|-----------------|-----------------|
B|-----------------|-----------------|-----------------|-----------------|
G|-----------------|-----------------|-----------------|-----------------|
D|-----------------|-----------------|-----------------|-----------------|
A|-----------------|-----------------|-----------------|-----------------|
D|-----------------|-----------------|-----------------|-----------------|
 |
 |
 | 1 + 2 + 3 + 4 +   1 + 2 + 3 + 4 +   1 + 2 + 3 + 4 +   1 + 2 + 3 + 4 +
E|-----------------|-----------------|-----------------|-----------------|
B|-----------------|-----------------|-----------------|--------------tt-|
G|-----------------|-----------------|-----------------|--------------77-|
D|-----------------|-----------------|-----------------|--------------77-|
A|-----------------|-----------------|-----------------|--------------55-|
D|-----------------|-----------------|-----------------|-----------------|


   1 + 2 + 3 + 4 +   1 + 2 + 3 + 4 +   1 + 2 + 3 + 4 +   1 + 2 + 3 + 4 +
E|-----------------|-----------------|-----------------|-----------------|
B|-----------------|-----------------|-----------------|-----------------|
G|-----------------|-----------------|-----------------|-----------------|
D|-----------------|-----------------|-----------------|-----------------|
A|-----------------|-----------------|-----------------|-----------------|
D|-----------------|-----------------|-----------------|-----------------|
 |
 |
 | 1 + 2 + 3 + 4 +   1 + 2 + 3 + 4 +   1 + 2 + 3 + 4 +   1 + 2 + 3 + 4 +
E|-----------------|-----------------|-----------------|-----------------|
B|-t---------------|-----------------|-----------------|-----------------|
G|-7-7-7-7-7-x-----|-----------------|-e-e-e---7-7-7---|-7-7-7-----------|
D|-7-7-7-7-7-x-7-x-|-5-5-5-5-5-7-7-9-|-9-9-9---4-4-4---|-5-5-5-----------|
A|-5-5-5-5-5-x-7-x-|-5-5-5-5-5-7-7-9-|-9-9-9---4-4-4---|-5-5-5-----------|
D|-------------7-x-|-5-5-5-5-5-7-7-9-|-9-9-9---4-4-4---|-5-5-5-----------|


   1 + 2 + 3 + 4 +   1 + 2 + 3 + 4 +   1 + 2 + 3 + 4 +   1 + 2 + 3 + 4 +
E|-----------------|-----------------|-----------------|-----------------|
B|-----------------|-----------------|-----------------|-----------------|
G|-7-7-7-7-7-e-e-9-|-9-9-9-9-9-6-6-7-|-7-7-7---e-e-e---|-9-9-9-9-9-6-6-7-|
D|-x-x-x-x-x-x-x-x-|-x-x-x-x-x-x-x-x-|-x-x-x---x-x-x---|-x-x-x-x-x-x-x-x-|
A|-5-5-5-5-5-9-9-7-|-7-7-7-7-7-4-4-5-|-5-5-5---9-9-9---|-7-7-7-7-7-4-4-5-|
D|-----------------|-----------------|-----------------|-----------------|
 |
 |
 | 1 + 2 + 3 + 4 +   1 + 2 + 3 + 4 +   1 + 2 + 3 + 4 +   1 + 2 + 3 + 4 +
E|-----------------|-----------------|-----------------|-----------------|
B|-----------------|-----------------|-----------------|-----------------|
G|-7-7-7-7-7-x-----|-----------------|-----------------|-----------------|
D|-7-7-7-7-7-x-7-x-|-5-5-5-5-5-7-7-9-|-9-9-9---4-4-4---|-5-5-5-5-5-7-7-7-|
A|-5-5-5-5-5-x-7-x-|-5-5-5-5-5-7-7-9-|-9-9-9---4-4-4---|-5-5-5-5-5-7-7-7-|
D|-------------7-x-|-5-5-5-5-5-7-7-9-|-9-9-9---4-4-4---|-5-5-5-5-5-7-7-7-|


   1 + 2 + 3 + 4 +   1 + 2 + 3 + 4 +   1 + 2 + 3 + 4 +   1 + 2 + 3 + 4 +
E|-----------------|-----------------|-----------------|-----------------|
B|-----------------|-----------------|-----------------|-----------------|
G|-7-7-7-7-7-e-e-9-|-9-9-9-9-9-6-6-7-|-7-7-7---e-e-e---|-9-9-9-9-9-7-7-7-|
D|-x-x-x-x-x-x-x-x-|-x-x-x-x-x-x-x-x-|-x-x-x---x-x-x---|-x-x-x-x-x-x-x-x-|
A|-5-5-5-5-5-9-9-7-|-7-7-7-7-7-4-4-5-|-5-5-5---9-9-9---|-7-7-7-7-7-5-5-5-|
D|-----------------|-----------------|-----------------|-----------------|
 |
 |
 | 1 + 2 + 3 + 4 +   1 + 2 + 3 + 4 +   1 + 2 + 3 + 4 +   1 + 2 + 3 + 4 +
E|-----------------|-----------------|-----------------|-----------------|
B|-----------------|-----------------|-----------------|-----------------|
G|-7-7-7-7-7-x-----|-----------------|-----------------|-----------------|
D|-7-7-7-7-7-x-7-x-|-5-5-5-5-5-7-7-9-|-9-9-9---4-4-4---|-5-5-5-5-5-7-7-7-|
A|-5-5-5-5-5-x-7-x-|-5-5-5-5-5-7-7-9-|-9-9-9---4-4-4---|-5-5-5-5-5-7-7-7-|
D|-------------7-x-|-5-5-5-5-5-7-7-9-|-9-9-9---4-4-4---|-5-5-5-5-5-7-7-7-|


Verse

   1 + 2 + 3 + 4 +   1 + 2 + 3 + 4 +   1 + 2 + 3 + 4 +   1 + 2 + 3 + 4 +
E|-----------------|-----------------|-----------------|-----------------|
B|-----------------|-----------------|-----------------|-----------------|
G|-7---7~----------|(7)--------------|(7)--------------|(7)--------------|
D|-x---x~----------|(x)--------------|(x)--------------|(x)--------------|
A|-5---5~----------|(5)--------------|(5)--------------|(5)--------------|
D|-----------------|-----------------|-----------------|-----------------|
 |
 |
 | 1 + 2 + 3 + 4 +   1 + 2 + 3 + 4 +   1 + 2 + 3 + 4 +   1 + 2 + 3 + 4 +
E|-----------------|-----------------|-----------------|-----------------|
B|-----------------|-----------------|-----------------|-----------------|
G|-----------------|-----------------|-----------------|-----------------|
D|-9---9~--9-9-9-9-|-8-8-8-8-8-8-8-8-|-7-7-7-7-7-7-7-7-|-6-6-6-6-6-6-6-6-|
A|-9---9~--9-9-9-9-|-8-8-8-8-8-8-8-8-|-7-7-7-7-7-7-7-7-|-6-6-6-6-6-6-6-6-|
D|-9---9~--9-9-9-9-|-8-8-8-8-8-8-8-8-|-7-7-7-7-7-7-7-7-|-6-6-6-6-6-6-6-6-|
           . . . .   . . . . . . . .   . . . . . . . .   . . . . . . . .


   1 + 2 + 3 + 4 +   1 + 2 + 3 + 4 +   1 + 2 + 3 + 4 +   1 + 2 + 3 + 4 +
E|-----------------|-----------------|-----------------|-----------------|
B|-----------------|-----------------|-----------------|-----------------|
G|-----------------|-----------7-7-7-|-7-7-7-7-7-7-7/9-|-7-7-7-7-7-7-7/9-|
D|-----------------|-----------x-x-x-|-x-x-x-x-x-x-x/x-|-x-x-x-x-x-x-x/x-|
A|-----------------|-----------5-5-5-|-5-5-5-5-5-5-5/7-|-5-5-5-5-5-5-5/7-|
D|-----------------|-----------------|-----------------|-----------------|
 |
 |
 | 1 + 2 + 3 + 4 +   1 + 2 + 3 + 4 +   1 + 2 + 3 + 4 +   1 + 2 + 3 + 4 +
E|-----------------|-----------------|-----------------|-----------------|
B|-----------------|-----------------|-----------------|-----------------|
G|-----------------|-----------------|-----------------|-----------------|
D|-5-5-5-5-5-5-5-5-|-5-5-5-5-5-5-5-5-|-9-9-9-9-9-9-9-9-|-8-8-8-8-8-8-8-8-|
A|-5-5-5-5-5-5-5-5-|-5-5-5-5-5-5-5-5-|-9-9-9-9-9-9-9-9-|-8-8-8-8-8-8-8-8-|
D|-5-5-5-5-5-5-5-5-|-5-5-5-5-5-5-5-5-|-9-9-9-9-9-9-9-9-|-8-8-8-8-8-8-8-8-|
   . . . . . . . .   . . . . . . . .   . . . . . . . .   . . . . . . . .


   1 + 2 + 3 + 4 +   1 + 2 + 3 + 4 +   1 + 2 + 3 + 4 +   1 + 2 + 3 + 4 +
E|-----------------|-----------------|-----------------|-----------------|
B|-----------------|-----------------|-----------------|-----------------|
G|-7-7-7-7-7-7-7/9-|-e-e-e-e-e-e-e-e-|-7-7-7-7-7-7-7-7-|-x\x-------------|
D|-x-x-x-x-x-x-x/x-|-x-x-x-x-x-x-x-x-|-x-x-x-x-x-x-x-x-|-x\x-------------|
A|-5-5-5-5-5-5-5/7-|-9-9-9-9-9-9-9-9-|-5-5-5-5-5-5-5-5-|-x\x-------------|
D|-----------------|-----------------|-----------------|-----------------|
 |
 |
 | 1 + 2 + 3 + 4 +   1 + 2 + 3 + 4 +   1 + 2 + 3 + 4 +   1 + 2 + 3 + 4 +
E|-----------------|-----------------|-----------------|-----------------|
B|-----------------|-----------------|-----------------|-----------------|
G|-----------------|-----------------|-----------------|-----------------|
D|-7-7-7-7-7-7-7-7-|-6-6-6-6-6-6-6-6-|-5-5-5-5-5-5-5-5-|-5-5-5-5-5-5-5-5-|
A|-7-7-7-7-7-7-7-7-|-6-6-6-6-6-6-6-6-|-5-5-5-5-5-5-5-5-|-5-5-5-5-5-5-5-5-|
D|-7-7-7-7-7-7-7-7-|-6-6-6-6-6-6-6-6-|-5-5-5-5-5-5-5-5-|-5-5-5-5-5-5-5-5-|
   . . . . . . . .   . . . . . . . .   . . . . . . . .   . . . . . . . .

Pre-Chorus

   1 + 2 + 3 + 4 +   1 + 2 + 3 + 4 +   1 + 2 + 3 + 4 +   1 + 2 + 3 + 4 +
E|-----------------|-----------------|-----------------|-----------------|
B|-----------------|-----------------|-----------------|-----------------|
G|-7-7-7-7-7---6---|-7-7-7-7-7---6---|-7-7-7---6-6-6---|-7-7-7-7-7-7-7-7-|
D|-x-x-x-x-x---x---|-x-x-x-x-x---x---|-x-x-x---x-x-x---|-x-x-x-x-x-x-x-x-|
A|-5-5-5-5-5---4---|-5-5-5-5-5---4---|-5-5-5---4-4-4---|-5-5-5-5-5-5-5-5-|
D|-----------------|-----------------|-----------------|-----------------|
 |
 |
 | 1 + 2 + 3 + 4 +   1 + 2 + 3 + 4 +   1 + 2 + 3 + 4 +   1 + 2 + 3 + 4 +
E|-----------------|-----------------|-----------------|-----------------|
B|-----------------|-----------------|-----------------|-----------------|
G|-----------------|-----------------|-----------------|-----------------|
D|-2-2-2-2-2---4---|-5-5-5-5-5---7---|-9-9-9---4-4-4---|-5-5-5-5-5-5-5-5-|
A|-2-2-2-2-2---4---|-5-5-5-5-5---7---|-9-9-9---4-4-4---|-5-5-5-5-5-5-5-5-|
D|-2-2-2-2-2---4---|-5-5-5-5-5---7---|-9-9-9---4-4-4---|-5-5-5-5-5-5-5-5-|


   1 + 2 + 3 + 4 +   1 + 2 + 3 + 4 +  
E|-----------------|-----------------|
B|-----------------|---------7-------|
G|-7-7-7-7-7---9---|-7~--7-------7---|
D|-x-x-x-x-x---x---|-x~--------------|
A|-5-5-5-5-5---7---|-5~--------------|
D|-----------------|-----------------|
 |                       +   +   +
 |
 | 1 + 2 + 3 + 4 +   1 + 2 + 3 + 4 + 
E|-----------------|-----------------|
B|-----------------|-----------------|
G|-----------------|-----------------|
D|-2-2-2-2-2---4---|-5~------x\x-----|
A|-2-2-2-2-2---4---|-5~------x\x-----|
D|-2-2-2-2-2---4---|-5~------x\x-----|


Chorus

   1 + 2 + 3 + 4 +   1 + 2 + 3 + 4 +   1 + 2 + 3 + 4 +   1 + 2 + 3 + 4 +
E|-----------------|-----------------|-----------------|-----------------|
B|-7---7---10--10--|-7---7---10--10--|-7---7---10--10--|-7---7---10--10--|
G|---7---7---7---7-|---7---7---7---7-|---7---7---7---7-|---7---7---7---7-|
D|-----------------|-----------------|-----------------|-----------------|
A|-----------------|-----------------|-----------------|-----------------|
D|-----------------|-----------------|-----------------|-----------------|
 |
 |
 | 1 + 2 + 3 + 4 +   1 + 2 + 3 + 4 +   1 + 2 + 3 + 4 +   1 + 2 + 3 + 4 +
E|-----------------|-----------------|-----------------|-----------------|
B|-----------------|-----------------|-----------------|-----------------|
G|-7-7-7-7-7-x-----|-----------------|-----------------|-----------------|
D|-7-7-7-7-7-x-7-x-|-5-5-5-5-5-7-7-9-|-9-9-9---4-4-4---|-5-5-5-5-5-7-7-7-|
A|-5-5-5-5-5-x-7-x-|-5-5-5-5-5-7-7-9-|-9-9-9---4-4-4---|-5-5-5-5-5-7-7-7-|
D|-------------7-x-|-5-5-5-5-5-7-7-9-|-9-9-9---4-4-4---|-5-5-5-5-5-7-7-7-|


   1 + 2 + 3 + 4 +   1 + 2 + 3 + 4 +   1 + 2 + 3 + 4 +   1 + 2 + 3 + 4 +
E|-----------------|-----------------|-----------------|-----------------|
B|-7---7---10--10--|-7---7---10--10--|-7---7---10--10--|-7---7-----------|
G|---7---7---7---7-|---7---7---7---7-|---7---7---7---7-|---7---7---------|
D|-----------------|-----------------|-----------------|---------x\x-----|
A|-----------------|-----------------|-----------------|---------x\x-----|
D|-----------------|-----------------|-----------------|---------x\x-----|
 |
 |
 | 1 + 2 + 3 + 4 +   1 + 2 + 3 + 4 +   1 + 2 + 3 + 4 +   1 + 2 + 3 + 4 +
E|-----------------|-----------------|-----------------|-----------------|
B|-----------------|-----------------|-----------------|-----------------|
G|-7-7-7-7-7-x-----|-----------------|-----------------|-----------------|
D|-7-7-7-7-7-x-7-x-|-5-5-5-5-5-7-7-9-|-9-9-9---4-4-4---|-5-5-5-5-5-5-5-5-|
A|-5-5-5-5-5-x-7-x-|-5-5-5-5-5-7-7-9-|-9-9-9---4-4-4---|-5-5-5-5-5-5-5-5-|
D|-------------7-x-|-5-5-5-5-5-7-7-9-|-9-9-9---4-4-4---|-5-5-5-5-5-5-5-5-|


Post-Chorus

   1 + 2 + 3 +   1 + 2 + 3 +   1 + 2 + 3 +   1 + 2 + 3 + 
E|-------------|-------------|-------------|-------------|
B|-------------|-------------|-------------|-------------|
G|-7-7-7-7~----|-e-e-e-9~----|-6-6-6-6~----|-e-e-e-9~----|
D|-x-x-x-x~----|-x-x-x-x~----|-x-x-x-x~----|-x-x-x-x~----|
A|-5-5-5-5~----|-9-9-9-7~----|-4-4-4-4~----|-9-9-9-7~----|
D|-------------|-------------|-------------|-------------|
 |
 |
 | 1 + 2 + 3 +   1 + 2 + 3 +   1 + 2 + 3 +   1 + 2 + 3 + 
E|-------------|-------------|-------------|-------------|
B|-------------|-------------|-------------|-------------|
G|-------------|-------------|-------------|-------------|
D|-4-4-4-4~----|-5-5-5-5-0~--|-7-7-7-7~----|-7-7-7-7-0~--|
A|-4-4-4-4~----|-5-5-5-5-0~--|-7-7-7-7~----|-7-7-7-7-0~--|
D|-4-4-4-4~----|-5-5-5-5-0~--|-7-7-7-7~----|-7-7-7-7-0~--|
   . . .         . . .         . . .         . . . 


   1 + 2 + 3 +   1 + 2 + 3 +   1 + 2 + 3 +   1 + 2 + 3 + 
E|-------------|-------------|-------------|-------------|
B|-------------|-------------|-------------|-------------|
G|-7-7-7-7~----|-e-e-e-9~----|-6-6-6-6~----|-e-----------|
D|-x-x-x-x~----|-x-x-x-x~----|-x-x-x-x~----|-x-----------|
A|-5-5-5-5~----|-9-9-9-7~----|-4-4-4-4~----|-9-----------|
D|-------------|-------------|-------------|-------------|
 |
 |
 | 1 + 2 + 3 +   1 + 2 + 3 +   1 + 2 + 3 +   1 + 2 + 3 + 
E|-------------|-------------|-------------|-------------|
B|-------------|-------------|-------------|-------------|
G|-------------|-------------|-------------|-------------|
D|-4-4-4-4~----|-5-5-5-5-0~--|-7-7-7-7~----|-7-----------|
A|-4-4-4-4~----|-5-5-5-5-0~--|-7-7-7-7~----|-7-----------|
D|-4-4-4-4~----|-5-5-5-5-0~--|-7-7-7-7~----|-7-----------|
   . . .         . . .         . . . 


Verse

   1 + 2 + 3 + 4 +   1 + 2 + 3 + 4 +   1 + 2 + 3 + 4 +   1 + 2 + 3 + 4 +
E|-----------------|-----------------|-----------------|-----------------|
B|-----------------|-----------------|-----------------|-7-7-7-7-7-7-7-7-|
G|-7-7-7-7-7-7-7h9-|-7-7-7-7-7-7-7h9-|-9-9-9-7-7-7-7h9-|-----------------|
D|-----------------|-----------------|-----------------|-----------------|
A|-----------------|-----------------|-----------------|-----------------|
D|-----------------|-----------------|-----------------|-----------------|
 | . . . . . .       . . . . . .       . . . . . . . .   . . . . . . . .
 |
 | 1 + 2 + 3 + 4 +   1 + 2 + 3 + 4 +   1 + 2 + 3 + 4 +   1 + 2 + 3 + 4 +
E|-----------------|-----------------|-----------------|-----------------|
B|-----------------|-----------------|-----------------|-----------------|
G|-----------------|-----------------|-----------------|-----------------|
D|-9-9-9-9-9-9-9-9-|-8-8-8-8-8-8-8-8-|-7-7-7-7-7-7-7-7-|-6-6-6-6-6-6-6-6-|
A|-9-9-9-9-9-9-9-9-|-8-8-8-8-8-8-8-8-|-7-7-7-7-7-7-7-7-|-6-6-6-6-6-6-6-6-|
D|-9-9-9-9-9-9-9-9-|-8-8-8-8-8-8-8-8-|-7-7-7-7-7-7-7-7-|-6-6-6-6-6-6-6-6-|
   . . . . . . . .   . . . . . . . .   . . . . . . . .   . . . . . . . .


   1 + 2 + 3 + 4 +   1 + 2 + 3 + 4 +   1 + 2 + 3 + 4 +   1 + 2 + 3 + 4 +
E|-----------------|-----------------|-----------------|-----------------|
B|-----------------|-----------------|-----------------|-----------------|
G|-7-7-7-7-7-7-7-7-|-7-7-7-7-7-7-7-7-|-7-7-7-7-7-7-7/9-|-7-7-7-7-7-7-7/9-|
D|-----------------|-----------x-x-x-|-x-x-x-x-x-x-x/x-|-x-x-x-x-x-x-x/x-|
A|-----------------|-----------5-5-5-|-5-5-5-5-5-5-5/7-|-5-5-5-5-5-5-5/7-|
D|-----------------|-----------------|-----------------|-----------------|
 | . . . . .  . .    . . . . . 
 |
 | 1 + 2 + 3 + 4 +   1 + 2 + 3 + 4 +   1 + 2 + 3 + 4 +   1 + 2 + 3 + 4 +
E|-----------------|-----------------|-----------------|-----------------|
B|-----------------|-----------------|-----------------|-----------------|
G|-----------------|-----------------|-----------------|-----------------|
D|-5-5-5-5-5-5-5-5-|-5-5-5-5-5-5-5-5-|-9-9-9-9-9-9-9-9-|-8-8-8-8-8-8-8-8-|
A|-5-5-5-5-5-5-5-5-|-5-5-5-5-5-5-5-5-|-9-9-9-9-9-9-9-9-|-8-8-8-8-8-8-8-8-|
D|-5-5-5-5-5-5-5-5-|-5-5-5-5-5-5-5-5-|-9-9-9-9-9-9-9-9-|-8-8-8-8-8-8-8-8-|
   . . . . . . . .   . . . . . . . .   . . . . . . . .   . . . . . . . .


   1 + 2 + 3 + 4 +   1 + 2 + 3 + 4 +   1 + 2 + 3 + 4 +   1 + 2 + 3 + 4 +
E|-----------------|-----------------|-----------------|-----------------|
B|-----------------|-----------------|-----------------|-----------------|
G|-7-7-7-7-7-7-7/9-|-e-e-e-e-e-e-e-e-|-7-7-7-7-7-7-7-7-|-x\x-------------|
D|-x-x-x-x-x-x-x/x-|-x-x-x-x-x-x-x-x-|-x-x-x-x-x-x-x-x-|-x\x-------------|
A|-5-5-5-5-5-5-5/7-|-9-9-9-9-9-9-9-9-|-5-5-5-5-5-5-5-5-|-x\x-------------|
D|-----------------|-----------------|-----------------|-----------------|
 |
 |
 | 1 + 2 + 3 + 4 +   1 + 2 + 3 + 4 +   1 + 2 + 3 + 4 +   1 + 2 + 3 + 4 +
E|-----------------|-----------------|-----------------|-----------------|
B|-----------------|-----------------|-----------------|-----------------|
G|-----------------|-----------------|-----------------|-----------------|
D|-7-7-7-7-7-7-7-7-|-6-6-6-6-6-6-6-6-|-5-5-5-5-5-5-5-5-|-5-5-5-5-5-5-5-5-|
A|-7-7-7-7-7-7-7-7-|-6-6-6-6-6-6-6-6-|-5-5-5-5-5-5-5-5-|-5-5-5-5-5-5-5-5-|
D|-7-7-7-7-7-7-7-7-|-6-6-6-6-6-6-6-6-|-5-5-5-5-5-5-5-5-|-5-5-5-5-5-5-5-5-|
   . . . . . . . .   . . . . . . . .   . . . . . . . .   . . . . . . . .


Pre-Chorus

   1 + 2 + 3 + 4 +   1 + 2 + 3 + 4 +   1 + 2 + 3 + 4 +   1 + 2 + 3 + 4 +
E|-----------------|-----------------|-----------------|-----------------|
B|-----------------|-----------------|-----------------|-----------------|
G|-7-7-7-7-7---6---|-7-7-7-7-7---6---|-7-7-7---6-6-6---|-7-7-7-7-7-7-7-7-|
D|-x-x-x-x-x---x---|-x-x-x-x-x---x---|-x-x-x---x-x-x---|-x-x-x-x-x-x-x-x-|
A|-5-5-5-5-5---4---|-5-5-5-5-5---4---|-5-5-5---4-4-4---|-5-5-5-5-5-5-5-5-|
D|-----------------|-----------------|-----------------|-----------------|
 |
 |
 | 1 + 2 + 3 + 4 +   1 + 2 + 3 + 4 +   1 + 2 + 3 + 4 +   1 + 2 + 3 + 4 +
E|-----------------|-----------------|-----------------|-----------------|
B|-----------------|-----------------|-----------------|-----------------|
G|-----------------|-----------------|-----------------|-----------------|
D|-2-2-2-2-2---4---|-5-5-5-5-5---7---|-9-9-9---4-4-4---|-5-5-5-5-5-5-5-5-|
A|-2-2-2-2-2---4---|-5-5-5-5-5---7---|-9-9-9---4-4-4---|-5-5-5-5-5-5-5-5-|
D|-2-2-2-2-2---4---|-5-5-5-5-5---7---|-9-9-9---4-4-4---|-5-5-5-5-5-5-5-5-|


   1 + 2 + 3 + 4 +   1 + 2 + 3 + 4 +  
E|-----------------|-----------------|
B|-----------------|-----------------|
G|-7-7-7-7-7---9---|-7~----------x\x-|
D|-x-x-x-x-x---x---|-x~----------x\x-|
A|-5-5-5-5-5---7---|-5~----------x\x-|
D|-----------------|-----------------|
 |
 |
 | 1 + 2 + 3 + 4 +   1 + 2 + 3 + 4 + 
E|-----------------|-----------------|
B|-----------------|-----------------|
G|-----------------|-----------------|
D|-2-2-2-2-2---4---|-5~----------x\x-|
A|-2-2-2-2-2---4---|-5~----------x\x-|
D|-2-2-2-2-2---4---|-5~----------x\x-|


Chorus

   1 + 2 + 3 + 4 +   1 + 2 + 3 + 4 +   1 + 2 + 3 + 4 +   1 + 2 + 3 + 4 +
E|-----------------|-----------------|-----------------|-----------------|
B|-7---7---10--10--|-7---7---10--10--|-7---7---10--10--|-7---7---10--10--|
G|---7---7---7---7-|---7---7---7---7-|---7---7---7---7-|---7---7---7---7-|
D|-----------------|-----------------|-----------------|-----------------|
A|-----------------|-----------------|-----------------|-----------------|
D|-----------------|-----------------|-----------------|-----------------|
 |
 |
 | 1 + 2 + 3 + 4 +   1 + 2 + 3 + 4 +   1 + 2 + 3 + 4 +   1 + 2 + 3 + 4 +
E|-----------------|-----------------|-----------------|-----------------|
B|-----------------|-----------------|-----------------|-----------------|
G|-7-7-7-7-7-x-----|-----------------|-----------------|-----------------|
D|-7-7-7-7-7-x-7-x-|-5-5-5-5-5-7-7-9-|-9-9-9---4-4-4---|-5-5-5-5-5-7-7-7-|
A|-5-5-5-5-5-x-7-x-|-5-5-5-5-5-7-7-9-|-9-9-9---4-4-4---|-5-5-5-5-5-7-7-7-|
D|-------------7-x-|-5-5-5-5-5-7-7-9-|-9-9-9---4-4-4---|-5-5-5-5-5-7-7-7-|


   1 + 2 + 3 + 4 +   1 + 2 + 3 + 4 +   1 + 2 + 3 + 4 +   1 + 2 + 3 + 4 +
E|-----------------|-----------------|-----------------|-----------------|
B|-7---7---10--10--|-7---7---10--10--|-7---7---10--10--|-7---7-----------|
G|---7---7---7---7-|---7---7---7---7-|---7---7---7---7-|---7---7---------|
D|-----------------|-----------------|-----------------|---------x\x-----|
A|-----------------|-----------------|-----------------|---------x\x-----|
D|-----------------|-----------------|-----------------|---------x\x-----|
 |
 |
 | 1 + 2 + 3 + 4 +   1 + 2 + 3 + 4 +   1 + 2 + 3 + 4 +   1 + 2 + 3 + 4 +
E|-----------------|-----------------|-----------------|-----------------|
B|-----------------|-----------------|-----------------|-----------------|
G|-7-7-7-7-7-x-----|-----------------|-----------------|-----------------|
D|-7-7-7-7-7-x-7-x-|-5-5-5-5-5-7-7-9-|-9-9-9---4-4-4---|-5-5-5-5-5-5-5-5-|
A|-5-5-5-5-5-x-7-x-|-5-5-5-5-5-7-7-9-|-9-9-9---4-4-4---|-5-5-5-5-5-5-5-5-|
D|-------------7-x-|-5-5-5-5-5-7-7-9-|-9-9-9---4-4-4---|-5-5-5-5-5-5-5-5-|


   1 + 2 + 3 + 4 +   1 + 2 + 3 + 4 +   1 + 2 + 3 + 4 +   1 + 2 + 3 + 4 +
E|-----------------|-----------------|-----------------|-----------------|
B|-7---7---10--10--|-7---7---10--10--|-7---7---10--10--|-7---7---10--10--|
G|---7---7---7---7-|---7---7---7---7-|---7---7---7---7-|---7---7---7---7-|
D|-----------------|-----------------|-----------------|-----------------|
A|-----------------|-----------------|-----------------|-----------------|
D|-----------------|-----------------|-----------------|-----------------|
 |
 |
 | 1 + 2 + 3 + 4 +   1 + 2 + 3 + 4 +   1 + 2 + 3 + 4 +   1 + 2 + 3 + 4 +
E|-----------------|-----------------|-----------------|-----------------|
B|-----------------|-----------------|-----------------|-----------------|
G|-7-7-7-7-7-e-e-9-|-9-9-9-9-9-6-6-7-|-7-7-7---e-e-e---|-9-9-9-9-9-6-6-7-|
D|-x-x-x-x-x-x-x-x-|-x-x-x-x-x-x-x-x-|-x-x-x---x-x-x---|-x-x-x-x-x-x-x-x-|
A|-5-5-5-5-5-9-9-7-|-7-7-7-7-7-4-4-5-|-5-5-5---9-9-9---|-7-7-7-7-7-4-4-5-|
D|-----------------|-----------------|-----------------|-----------------|
 |
 |
 | 1 + 2 + 3 + 4 +   1 + 2 + 3 + 4 +   1 + 2 + 3 + 4 +   1 + 2 + 3 + 4 +
E|-----------------|-----------------|-----------------|-----------------|
B|-----------------|-----------------|-----------------|-----------------|
G|-7-7-7-7-7-x-----|-----------------|-----------------|-----------------|
D|-7-7-7-7-7-x-7-x-|-5-5-5-5-5-7-7-9-|-9-9-9---4-4-4---|-5-5-5-5-5-7-7-7-|
A|-5-5-5-5-5-x-7-x-|-5-5-5-5-5-7-7-9-|-9-9-9---4-4-4---|-5-5-5-5-5-7-7-7-|
D|-------------7-x-|-5-5-5-5-5-7-7-9-|-9-9-9---4-4-4---|-5-5-5-5-5-7-7-7-|


   1 + 2 + 3 + 4 +   1 + 2 + 3 + 4 +   1 + 2 + 3 + 4 +   1 + 2 + 3 + 4 +
E|-----------------|-----------------|-----------------|-----------------|
B|-7---7---10--10--|-7---7---10--10--|-7---7---10--10--|-7---7---10--10--|
G|---7---7---7---7-|---7---7---7---7-|---7---7---7---7-|---7---7---7---7-|
D|-----------------|-----------------|-----------------|-----------------|
A|-----------------|-----------------|-----------------|-----------------|
D|-----------------|-----------------|-----------------|-----------------|
 |
 |
 | 1 + 2 + 3 + 4 +   1 + 2 + 3 + 4 +   1 + 2 + 3 + 4 +   1 + 2 + 3 + 4 +
E|-----------------|-----------------|-----------------|-----------------|
B|-----------------|-----------------|-----------------|-----------------|
G|-7-7-7-7-7-e-e-9-|-9-9-9-9-9-6-6-7-|-7-7-7---e-e-e---|-9-9-9-9-9-6-6-7-|
D|-x-x-x-x-x-x-x-x-|-x-x-x-x-x-x-x-x-|-x-x-x---x-x-x---|-x-x-x-x-x-x-x-x-|
A|-5-5-5-5-5-9-9-7-|-7-7-7-7-7-4-4-5-|-5-5-5---9-9-9---|-7-7-7-7-7-4-4-5-|
D|-----------------|-----------------|-----------------|-----------------|
 |
 |
 | 1 + 2 + 3 + 4 +   1 + 2 + 3 + 4 +   1 + 2 + 3 + 4 +   1 + 2 + 3 + 4 +
E|-----------------|-----------------|-----------------|-----------------|
B|-----------------|-----------------|-----------------|-----------------|
G|-7-7-7-7-7-x-----|-----------------|-----------------|-----------------|
D|-7-7-7-7-7-x-7-x-|-5-5-5-5-5-7-7-9-|-9-9-9---4-4-4---|-5-5-5-5-5-5-5-5-|
A|-5-5-5-5-5-x-7-x-|-5-5-5-5-5-7-7-9-|-9-9-9---4-4-4---|-5-5-5-5-5-5-5-5-|
D|-------------7-x-|-5-5-5-5-5-7-7-9-|-9-9-9---4-4-4---|-5-5-5-5-5-5-5-5-|


Bridge

   1 + 2 + 3 +   1 + 2 + 3 +   1 + 2 + 3 +   1 + 2 + 3 + 
E|-------------|-------------|-------------|-------------|
B|-------------|-------------|-------------|-------------|
G|-7-7-7-7~----|-e-e-e-9-9-9-|-6-6-6-6~----|-e-e-e-9-9-9-|
D|-x-x-x-x~----|-x-x-x-x-x-x-|-x-x-x-x~----|-x-x-x-x-x-x-|
A|-5-5-5-5~----|-9-9-9-7-7-7-|-4-4-4-4~----|-9-9-9-7-7-7-|
D|-------------|-------------|-------------|-------------|
 |
 |
 | 1 + 2 + 3 +   1 + 2 + 3 +   1 + 2 + 3 +   1 + 2 + 3 + 
E|-------------|-------------|-------------|-------------|
B|-------------|-------------|-------------|-------------|
G|-------------|-------------|-------------|-------------|
D|-4-4-4-4~----|-5-5-5-5-0~--|-7-7-7-7~----|-7-7-7-7-0~--|
A|-4-4-4-4~----|-5-5-5-5-0~--|-7-7-7-7~----|-7-7-7-7-0~--|
D|-4-4-4-4~----|-5-5-5-5-0~--|-7-7-7-7~----|-7-7-7-7-0~--|
   . . .         . . .         . . .         . . . 


   1 + 2 + 3 +   1 + 2 + 3 +   1 + 2 + 3 +   1 + 2 + 3 + 
E|-------------|-------------|-------------|-------------|
B|-------------|-------------|-------------|-------------|
G|-7-7-7-7~----|-e-e-e-9-9-9-|-6-6-6-6~----|-e-e-e-9-9-9-|
D|-x-x-x-x~----|-x-x-x-x-x-x-|-x-x-x-x~----|-x-x-x-x-x-x-|
A|-5-5-5-5~----|-9-9-9-7-7-7-|-4-4-4-4~----|-9-9-9-7-7-7-|
D|-------------|-------------|-------------|-------------|
 |
 |
 | 1 + 2 + 3 +   1 + 2 + 3 +   1 + 2 + 3 +   1 + 2 + 3 + 
E|-------------|-------------|-------------|-------------|
B|-------------|-------------|-------------|-------------|
G|-------------|-------------|-------------|-------------|
D|-4-4-4-4~----|-5-5-5-5-0~--|-7-7-7-7~----|-7-7-7-7-0~--|
A|-4-4-4-4~----|-5-5-5-5-0~--|-7-7-7-7~----|-7-7-7-7-0~--|
D|-4-4-4-4~----|-5-5-5-5-0~--|-7-7-7-7~----|-7-7-7-7-0~--|
   . . .         . . .         . . .         . . . 


   1 + 2 + 3 +   1 + 2 + 3 +   1 + 2 + 3 +   1 + 2 + 3 + 
E|-------------|-------------|-------------|-------------|
B|-------------|-------------|-------------|-------------|
G|-e-e-e-e~----|141414121212-|-6-6-6-6~----|141414121212-|
D|-x-x-x-x~----|-x-x-x-x-x-x-|-x-x-x-x~----|-x-x-x-x-x-x-|
A|-9-9-9-9~----|121212101010-|-4-4-4-4~----|121212101010-|
D|-------------|-------------|-------------|-------------|
 |
 |
 | 1 + 2 + 3 +   1 + 2 + 3 +   1 + 2 + 3 +   1 + 2 + 3 + 
E|-------------|-------------|-------------|-------------|
B|-------------|-------------|-------------|-------------|
G|-------------|-------------|-------------|-------------|
D|-4-4-4-4~----|-5-5-5-5-0~--|-7-7-7-7~----|-7-7-7-7-0~--|
A|-4-4-4-4~----|-5-5-5-5-0~--|-7-7-7-7~----|-7-7-7-7-0~--|
D|-4-4-4-4~----|-5-5-5-5-0~--|-7-7-7-7~----|-7-7-7-7-0~--|
   . . .         . . .         . . .         . . . 


   1 + 2 + 3 +   1 + 2 + 3 + 
E|-------------|-------------|
B|-------------|-------------|
G|-------e~----|141414121212-|
D|-------x~----|-x-x-x-x-x-x-|
A|-------9~----|121212101010-|
D|-------------|-------------|
 |
 |
 | 1 + 2 + 3 +   1 + 2 + 3 + 
E|-------------|-------------|
B|-------------|-------------|
G|-------------|-------------|
D|-4-4-4-4~----|-7-7-7-7-0~--|
A|-4-4-4-4~----|-7-7-7-7-0~--|
D|-4-4-4-4~----|-7-7-7-7-0~--|
   . . .         . . . . 


   1 + 2 + 3 + 4 +   1 + 2 + 3 + 4 +
E|-----------------|-----------------|
B|-----------------|-----------------|
G|-----6h7---7-----|-9-----9-----9---|
D|-----------------|-----------------|
A|-----------------|-----------------|
D|-----------------|-----------------|
 |
 |
 | 1 + 2 + 3 + 4 +   1 + 2 + 3 + 4 + 
E|-----------------|-----------------|
B|-----------------|-----------------|
G|-----------------|-----------------|
D|-7-7-7-7-7-7-7-7-|-7-7-7-7-7-7-7-7-|
A|-7-7-7-7-7-7-7-7-|-7-7-7-7-7-7-7-7-|
D|-7-7-7-7-7-7-7-7-|-7-7-7-7-7-7-7-7-|
   . . . . . . . .   . . . . . . . .


   1 + 2 + 3 + 4 +   1 + 2 + 3 + 4 +   1 + 2 + 3 + 4 +   1 + 2 + 3 + 4 +
E|-----------------|-----------------|-----------------|-----------------|
B|-7~------7-------|-----------------|-----------------|-----------------|
G|-7~------7-------|-----------------|-----------------|---------------7-|
D|-7~------7-------|-----------------|-----------------|---------------7-|
A|-5~------5-------|-----------------|-----------------|---------------5-|
D|-----------------|-----------------|-----------------|-----------------|
 |
 |
 | 1 + 2 + 3 + 4 +   1 + 2 + 3 + 4 +   1 + 2 + 3 + 4 +   1 + 2 + 3 + 4 +
E|-----------------|-----------------|-----------------|-----------------|
B|-----------------|-----------------|-----------------|-----------------|
G|-----------------|-----------------|-----------------|-----------------|
D|-0~------0-------|-----------------|-----------------|---------------0-|
A|-0~------0-------|-----------------|-----------------|---------------0-|
D|-0~------0-------|-----------------|-----------------|---------------0-|


   1 + 2 + 3 + 4 +   1 + 2 + 3 + 4 +   1 + 2 + 3 + 4 +   1 + 2 + 3 + 4 +
E|-----------------|-----------------|-----------------|-----------------|
B|-----------------|-----------------|-----------------|-----------------|
G|-----------------|-----------------|-------------e-e-|-e-e-e-e-e-e-e-e-|
D|-0-0-0-0-0-0-0-0-|-0-0-0-0-0-0-0-0-|-5-----------x-x-|-x-x-x-x-x-x-x-x-|
A|-0-0-0-0-0-0-0-0-|-0-0-0-0-0-0-0-0-|-5-----------9-9-|-9-9-9-9-9-9-9-9-|
D|-0-0-0-0-0-0-0-0-|-0-0-0-0-0-0-0-0-|-5---------------|-----------------|
 | . . . . . . . .   . . . . . . . .
 |
 | 1 + 2 + 3 + 4 +   1 + 2 + 3 + 4 +   1 + 2 + 3 + 4 +   1 + 2 + 3 + 4 +
E|-----------------|-----------------|-----------------|-----------------|
B|-----------------|-----------------|-----------------|-----------------|
G|-----------------|-----------------|-----------------|-----------------|
D|-0-0-0-0-0-0-0-0-|-0-0-0-0-0-0-0-0-|-5---------------|-----------------|
A|-0-0-0-0-0-0-0-0-|-0-0-0-0-0-0-0-0-|-5---------------|-----------------|
D|-0-0-0-0-0-0-0-0-|-0-0-0-0-0-0-0-0-|-5---------------|-----------------|
   . . . . . . . .   . . . . . . . .


Chorus

   1 + 2 + 3 + 4 +   1 + 2 + 3 + 4 +   1 + 2 + 3 + 4 +   1 + 2 + 3 + 4 +
E|-----------------|-----------------|-----------------|-----------------|
B|-7---7---10--10--|-7---7---10--10--|-7---7---10--10--|-7---7---10--10--|
G|---7---7---7---7-|---7---7---7---7-|---7---7---7---7-|---7---7---7---7-|
D|-----------------|-----------------|-----------------|-----------------|
A|-----------------|-----------------|-----------------|-----------------|
D|-----------------|-----------------|-----------------|-----------------|
 |
 |
 | 1 + 2 + 3 + 4 +   1 + 2 + 3 + 4 +   1 + 2 + 3 + 4 +   1 + 2 + 3 + 4 +
E|-----------------|-----------------|-----------------|-----------------|
B|-----------------|-----------------|-----------------|-----------------|
G|-7-7-7-7-7-x-----|-----------------|-----------------|-----------------|
D|-7-7-7-7-7-x-7-x-|-5-5-5-5-5-7-7-9-|-9-9-9---4-4-4---|-5-5-5-5-5-7-7-7-|
A|-5-5-5-5-5-x-7-x-|-5-5-5-5-5-7-7-9-|-9-9-9---4-4-4---|-5-5-5-5-5-7-7-7-|
D|-------------7-x-|-5-5-5-5-5-7-7-9-|-9-9-9---4-4-4---|-5-5-5-5-5-7-7-7-|


   1 + 2 + 3 + 4 +   1 + 2 + 3 + 4 +   1 + 2 + 3 + 4 +   1 + 2 + 3 + 4 +
E|-----------------|-----------------|-----------------|-----------------|
B|-7---7---10--10--|-7---7---10--10--|-7---7---10--10--|-7---7---7---7---|
G|---7---7---7---7-|---7---7---7---7-|---7---7---7---7-|---7---7---7---7-|
D|-----------------|-----------------|-----------------|-----------------|
A|-----------------|-----------------|-----------------|-----------------|
D|-----------------|-----------------|-----------------|-----------------|
 |
 |
 | 1 + 2 + 3 + 4 +   1 + 2 + 3 + 4 +   1 + 2 + 3 + 4 +   1 + 2 + 3 + 4 +
E|-----------------|-----------------|-----------------|-----------------|
B|-----------------|-----------------|-----------------|-----------------|
G|-7-7-7-7-7-x-----|-----------------|-----------------|-----------------|
D|-7-7-7-7-7-x-7-x-|-5-5-5-5-5-7-7-9-|-9-9-9---4-4-4---|-5-5-5-5-5-5-5-5-|
A|-5-5-5-5-5-x-7-x-|-5-5-5-5-5-7-7-9-|-9-9-9---4-4-4---|-5-5-5-5-5-5-5-5-|
D|-------------7-x-|-5-5-5-5-5-7-7-9-|-9-9-9---4-4-4---|-5-5-5-5-5-5-5-5-|


Outro

   1 + 2 + 3 + 4 +   1 + 2 + 3 + 4 +   1 + 2 + 3 + 4 +   1 + 2 + 3 + 4 +
E|-----------------|-----------------|-----------------|-----------------|
B|-7---7---10--10--|-7---7---10--10--|-7---7---10--10--|-7---7---10--10--|
G|---7---7---7---7-|---7---7---7---7-|---7---7---7---7-|---7---7---7---7-|
D|-----------------|-----------------|-----------------|-----------------|
A|-----------------|-----------------|-----------------|-----------------|
D|-----------------|-----------------|-----------------|-----------------|
 |
 |
 | 1 + 2 + 3 + 4 +   1 + 2 + 3 + 4 +   1 + 2 + 3 + 4 +   1 + 2 + 3 + 4 +
E|-----------------|-----------------|-----------------|-----------------|
B|-----------------|-----------------|-----------------|-----------------|
G|-e-e-e-e-e-12-e-e|-e-e-e-e-e-12-e-e|-e-e-e---141414--|-7-7-7-9-9-e-e-e-|
D|-x-x-x-x-x--x-x-x|-x-x-x-x-x--x-x-x|-x-x-x----x-x-x--|-x-x-x-x-x-x-x-x-|
A|-9-9-9-9-9-10-9-9|-9-9-9-9-9-10-9-9|-9-9-9---121212--|-5-5-5-7-7-9-9-9-|
D|-----------------|-----------------|-----------------|-----------------|
 |
 |
 | 1 + 2 + 3 + 4 +   1 + 2 + 3 + 4 +   1 + 2 + 3 + 4 +   1 + 2 + 3 + 4 +
E|-----------------|-----------------|-----------------|-----------------|
B|-----------------|-----------------|-----------------|-----------------|
G|-7-7-7-7-7-x-----|-----------------|-----------------|-----------------|
D|-7-7-7-7-7-x-7-x-|-5-5-5-5-5-7-7-9-|-9-9-9---4-4-4---|-5-5-5-5-5-7-7-7-|
A|-5-5-5-5-5-x-7-x-|-5-5-5-5-5-7-7-9-|-9-9-9---4-4-4---|-5-5-5-5-5-7-7-7-|
D|-------------7-x-|-5-5-5-5-5-7-7-9-|-9-9-9---4-4-4---|-5-5-5-5-5-7-7-7-|


   1 + 2 + 3 + 4 +   1 + 2 + 3 + 4 +   1 + 2 + 3 + 4 +   1 + 2 + 3 + 4 +
E|-----------------|-----------------|-----------------|-----------------|
B|-7---7---10--10--|-7---7---10--10--|-7---7---10--10--|-7---7---10--10--|
G|---7---7---7---7-|---7---7---7---7-|---7---7---7---7-|---7---7---7---7-|
D|-----------------|-----------------|-----------------|-----------------|
A|-----------------|-----------------|-----------------|-----------------|
D|-----------------|-----------------|-----------------|-----------------|
 |
 |
 | 1 + 2 + 3 + 4 +   1 + 2 + 3 + 4 +   1 + 2 + 3 + 4 +   1 + 2 + 3 + 4 +
E|-----------------|-----------------|-----------------|-----------------|
B|-----------------|-----------------|-----------------|-----------------|
G|-e-e-e-e-e-12-e-e|-e-e-e-e-e-12-e-e|-e-e-e---141414--|-7-7-7-9-9-e-e-e-|
D|-x-x-x-x-x--x-x-x|-x-x-x-x-x--x-x-x|-x-x-x----x-x-x--|-x-x-x-x-x-x-x-x-|
A|-9-9-9-9-9-10-9-9|-9-9-9-9-9-10-9-9|-9-9-9---121212--|-5-5-5-7-7-9-9-9-|
D|-----------------|-----------------|-----------------|-----------------|
 |
 |
 | 1 + 2 + 3 + 4 +   1 + 2 + 3 + 4 +   1 + 2 + 3 + 4 +   1 + 2 + 3 + 4 +
E|-----------------|-----------------|-----------------|-----------------|
B|-----------------|-----------------|-----------------|-----------------|
G|-7-7-7-7-7-x-----|-----------------|-----------------|-----------------|
D|-7-7-7-7-7-x-7-x-|-5-5-5-5-5-7-7-9-|-9-9-9---4-4-4---|-5-5-5-5-5-5-5-5-|
A|-5-5-5-5-5-x-7-x-|-5-5-5-5-5-7-7-9-|-9-9-9---4-4-4---|-5-5-5-5-5-5-5-5-|
D|-------------7-x-|-5-5-5-5-5-7-7-9-|-9-9-9---4-4-4---|-5-5-5-5-5-5-5-5-|


   1 + 2 + 3 + 4 +   1 + 2 + 3 + 4 +   1 + 2 + 3 + 4 +   1 + 2 + 3 + 4 +
E|-----------------|-----------------|-----------------|-----------------|
B|-7---7---10--10--|-7---7---10--10--|-7---7---10--10--|-7---7---10--10--|
G|---7---7---7---7-|---7---7---7---7-|---7---7---7---7-|---7---7---7---7-|
D|-----------------|-----------------|-----------------|-----------------|
A|-----------------|-----------------|-----------------|-----------------|
D|-----------------|-----------------|-----------------|-----------------|
 |
 |
 | 1 + 2 + 3 + 4 +   1 + 2 + 3 + 4 +   1 + 2 + 3 + 4 +   1 + 2 + 3 + 4 +
E|-----------------|-----------------|-----------------|-----------------|
B|-----------------|-----------------|-----------------|-----------------|
G|-e-e-e-e-e-12-e-e|-e-e-e-e-e-12-e-e|-e-e-e---141414--|-7-7-7-9-9-e-e-e-|
D|-x-x-x-x-x--x-x-x|-x-x-x-x-x--x-x-x|-x-x-x----x-x-x--|-x-x-x-x-x-x-x-x-|
A|-9-9-9-9-9-10-9-9|-9-9-9-9-9-10-9-9|-9-9-9---121212--|-5-5-5-7-7-9-9-9-|
D|-----------------|-----------------|-----------------|-----------------|
 |
 |
 | 1 + 2 + 3 + 4 +   1 + 2 + 3 + 4 +   1 + 2 + 3 + 4 +   1 + 2 + 3 + 4 +
E|-----------------|-----------------|-----------------|-----------------|
B|-----------------|-----------------|-----------------|-----------------|
G|-7-7-7-7-7-x-----|-----------------|-----------------|-----------------|
D|-7-7-7-7-7-x-7-x-|-5-5-5-5-5-7-7-9-|-9-9-9---4-4-4---|-5-5-5-5-5-7-7-7-|
A|-5-5-5-5-5-x-7-x-|-5-5-5-5-5-7-7-9-|-9-9-9---4-4-4---|-5-5-5-5-5-7-7-7-|
D|-------------7-x-|-5-5-5-5-5-7-7-9-|-9-9-9---4-4-4---|-5-5-5-5-5-7-7-7-|


   1 + 2 + 3 + 4 +   1 + 2 + 3 + 4 +   1 + 2 + 3 + 4 +   1 + 2 + 3 + 4 +
E|-----------------|-----------------|-----------------|-----------------|
B|-7---7---10--10--|-7---7---10--10--|-7---7---10--10--|-----------------|
G|---7---7---7---7-|---7---7---7---7-|---7---7---7---7-|-----------------|
D|-----------------|-----------------|-----------------|-----------------|
A|-----------------|-----------------|-----------------|-----------------|
D|-----------------|-----------------|-----------------|-----------------|
 |
 |
 | 1 + 2 + 3 + 4 +   1 + 2 + 3 + 4 +   1 + 2 + 3 + 4 +   1 + 2 + 3 + 4 +
E|-----------------|-----------------|-----------------|-----------------|
B|-----------------|-----------------|-----------------|-----------------|
G|-e-e-e-e-e-12-e-e|-e-e-e-e-e-12-e-e|-e-e-e---141414--|-----------------|
D|-x-x-x-x-x--x-x-x|-x-x-x-x-x--x-x-x|-x-x-x----x-x-x--|-5-5-5-5-5---7\--|
A|-9-9-9-9-9-10-9-9|-9-9-9-9-9-10-9-9|-9-9-9---121212--|-5-5-5-5-5---7\--|
D|-----------------|-----------------|-----------------|-5-5-5-5-5---7\--|
 |                                                       . . . . .
 |
 | 1 + 2 + 3 + 4 +   1 + 2 + 3 + 4 +   1 + 2 + 3 + 4 +   1 + 2 + 3 + 4 +
E|-----------------|-----------------|-----------------|-----------------|
B|-----------------|-----------------|-----------------|-----------------|
G|-7-7-7-7-7-x-----|-----------------|-----------------|-----------------|
D|-7-7-7-7-7-x-7-x-|-5-5-5-5-5-7-7-9-|-9-9-9---4-4-4---|-5-5-5-5-5---7\--|
A|-5-5-5-5-5-x-7-x-|-5-5-5-5-5-7-7-9-|-9-9-9---4-4-4---|-5-5-5-5-5---7\--|
D|-------------7-x-|-5-5-5-5-5-7-7-9-|-9-9-9---4-4-4---|-5-5-5-5-5---7\--|
                                                         . . . . . 


that's it, this is such an awesome song! enjoy!

            
            
Suggest correction
Creating personal tab
Creating personal tab
You can edit any tab online and save it as your Personal.

You can edit, replace or remove any tab part or add personal notes – all changes will be seen only by you.

Personal tabs can be accessed anytime from any device, even offline.
Learn more »
comments
print report bad tab
7 comments total. Showing first comments. show 1 bad comment
0 reply
Imnotrichey 133 Feb 13, 2006 04:38 PM

very good tab..but kinda confusing since none of the guitars are labeled, that might be helpful...especially in the 3 gtr part ending

0 reply
Downstrike 31 Jun 29, 2006 01:52 PM

perfect thnx a lot dude

guest
Wanna post a correction for this tab? Suggest correction