Oops, an error
Loading. Please wait.
We have an official I Dont Care tab made by UG professional guitarists. Check out the tab »
×
25,211 views 15 this week
5 commentsread comments
1 2 3 4 5
x 7
add to favorites
×
Save as Personal and add changes to this tab that will be seen only by you. Learn more ›
×
You can save this tab as Personal to edit and correct it or add notes. All changes will be seen only by you. Learn more »
launch autoscroll
font size
0
reset
guitar tuner
backing track
0:00
0:00
edit
Autoscroll
slow
fast
+/-
esc
set tempo
stop
FOB'S NEW SONG!!!
Folie a Deux Releasing on Dec. 16th

G|------------------------|
D|------------------------|x6
A|------------------------|x6
E|-2-2--2-2/5~7-7-5~7-7-5~|

G|------------------------------|
D|------------------------------|
A|-555555-4444444-222222-000000-|
E|------------------------------|

G|------------------------|
D|------------------------|x3
A|------------------------|x3
E|-2-2--2-2/5~7-7-5~7-7-5~|

G|------------------------------|
D|------------------------------|
A|-555555-4444444-222222-000000-|
E|------------------------------|

G|------------------------|
D|------------------------|
A|------------------------|
E|-2-2--2-2/5~7-7-5~7-7-5~|

G|-------------------------------------------------|
D|-------------------------------------------------|
A|-----------------5-5-5-5\2-2-2-2/5-5-5-5\2-2-2-2-|
E|-2-2-2-2/5-5-5-5---------------------------------|

G|------------------------|
D|------------------------|
A|------------------------|
E|-2-2--2-2/5~7-7-5~7-7-5~|

G|-------------------------------------------------|
D|-------------------------------------------------|
A|-----------------5-5-5-5\2-2-2-2/5-5-5-5\2-2-2-2-|
E|-2-2-2-2/5-5-5-5---------------------------------|

G|------------------------|
D|------------------------|
A|------------------------|
E|-2-2--2-2/5~7-7-5~7-7-5~|

G|--------------------|
D|--------------------|
A|--------------------|
E|-2-2--2-2/5~7-7-5~7~|

G|------------------------|
D|------------------------|x2
A|------------------------|x2
E|-2-2--2-2/5~7-7-5~7-7-5~|

G|------------------------------|
D|------------------------------|
A|-555555-4444444-222222-000000-|
E|------------------------------|

G|------------------------|
D|------------------------|x3
A|------------------------|x3
E|-2-2--2-2/5~7-7-5~7-7-5~|

G|------------------------------|
D|------------------------------|
A|-555555-4444444-222222-000000-|
E|------------------------------|

G|------------------------|
D|------------------------|
A|------------------------|
E|-2-2--2-2/5~7-7-5~7-7-5~|

G|-------------------------------------------------|
D|-------------------------------------------------|
A|-----------------5-5-5-5\2-2-2-2/5-5-5-5\2-2-2-2-|
E|-2-2-2-2/5-5-5-5---------------------------------|

G|------------------------|
D|------------------------|
A|------------------------|
E|-2-2--2-2/5~7-7-5~7-7-5~|

G|-------------------------------------------------|
D|-------------------------------------------------|
A|-----------------5-5-5-5\2-2-2-2/5-5-5-5\2-2-2-2-|
E|-2-2-2-2/5-5-5-5---------------------------------|

G|------------------------|
D|------------------------|
A|------------------------|
E|-2-2--2-2/5~7-7-5~7-7-5~|

G|--------------------------|
D|--------------------------|
A|--------------------------|
E|-2-2--2-2/5~7-7-5~7-7-5~2~|

Short pause

G|------------------------|
D|-4-4--4-4/7~9-9-7~9-9-7~|x8
A|------------------------|x8
E|------------------------|

Then

G|-------------------------------------------------|
D|-------------------------------------------------|
A|-----------------5-5-5-5\2-2-2-2/5-5-5-5\2-2-2-2-|
E|-2---2--/5---5-----------------------------------|

G|------------------------|
D|------------------------|
A|------------------------|
E|-2-2--2-2/5~7-7-5~7-7-5~|

G|-------------------------------------------------|
D|-------------------------------------------------|
A|-----------------5-5-5-5\2-2-2-2/5-5-5-5\2-2-2-2-|
E|-2-2-2-2/5-5-5-5---------------------------------|

G|------------------------|
D|------------------------|
A|------------------------|
E|-2-2--2-2/5~7-7-5~7-7-5~|

G|--------------------------|
D|--------------------------|
A|--------------------------|
E|-2-2--2-2/5~7-7-5~7-7-5~2~|

            
            
Suggest correction
Creating personal tab
Creating personal tab
You can edit any tab online and save it as your Personal.

You can edit, replace or remove any tab part or add personal notes – all changes will be seen only by you.

Personal tabs can be accessed anytime from any device, even offline.
Learn more »
comments
print report bad tab
5 comments total. Showing first comments.
+1 reply
RBBass 35 Oct 01, 2008 11:15 AM

Great tab. Love the song.

+1 reply
SnipShot 10 Nov 11, 2008 11:17 AM

nice 1

+1 reply
Patrickgibsonsg 40 Dec 02, 2008 08:54 PM

Close but no cigar.

guest
You may want to rate the tab now too:
select rating
Wanna post a correction for this tab? Suggest correction