Oops, an error
Loading. Please wait.
We have an official I Dont Care tab made by UG professional guitarists. Check out the tab »
×
21,138 views 3 this week
4 commentsread comments
1 2 3 4 5
x 5
add to favorites
×
Save as Personal and add changes to this tab that will be seen only by you. Learn more ›
×
You can save this tab as Personal to edit and correct it or add notes. All changes will be seen only by you. Learn more »
launch autoscroll
font size
0
reset
guitar tuner
backing track
0:00
0:00
edit
Autoscroll
slow
fast
+/-
esc
set tempo
stop
Author
Difficulty
Intro

D|-----------------|
A|-----------------|
E|-----------------|  x6
A|11--44-6-44-6-1--|

Verse

D|---------------------|
A|---------------------|
E|---------------------| 
A|9-9-8-8-6-6-4-4------|

Intro x3
Verse
Intro x1

Chorus x2

D|--------------------------------------------------------------|
A|--------------------------------------------------------------|
E|--------------------------------------------------------------|
A|11111111-44444444-99999999-66666666-99999999-66666666-11111111|

Intro 

D|-----------------|       
A|-----------------|
E|-----------------|  x4
A|11--44-6-44-6-1--|

Verse

D|-------------------|
A|-------------------|
E|-------------------| 
A|9-9-8-8-6-6-4-4----|

Intro x3
Verse
Chorus x2

Intro (alternate)

D|-----------------|       
A|-----------------|
E|-----------------|  x12
A|1--4-6-4-6-1-----|

Bridge

D|---------------------------------------------------|       
A|---------------------------------------------------|
E|---------------------------------------------------|  
A|1~--4~--9~--66666666-99999999-66666666-11111111----|


Enjoy!

            
            
Suggest correction
Creating personal tab
Creating personal tab
You can edit any tab online and save it as your Personal.

You can edit, replace or remove any tab part or add personal notes – all changes will be seen only by you.

Personal tabs can be accessed anytime from any device, even offline.
Learn more »
comments
print report bad tab
4 comments total. Showing first comments.
0 reply
pau1234 41 Nov 07, 2008 12:04 PM

hey man can U make it for power tab or guiter pro, please

+2 reply
Patrickgibsonsg 40 Dec 02, 2008 08:55 PM

a little off there buddy

0 reply
Iwritemusic12 98 Dec 25, 2008 02:47 PM

Need help on the intro

guest
You may want to rate the tab now too:
select rating
Wanna post a correction for this tab? Suggest correction