Oops, an error
Loading. Please wait.

Ive Got All This Ringing In My Ears And None On My Fingers bass

version 2
version 2

Whole song

Interactive

2,440 views 1 this week
3 commentsread comments
1 2 3 4 5
x 5
add to favorites
×
Save as Personal and add changes to this tab that will be seen only by you. Learn more ›
×
You can save this tab as Personal to edit and correct it or add notes. All changes will be seen only by you. Learn more »
launch autoscroll
font size
0
reset
guitar tuner
edit
Autoscroll
slow
fast
+/-
esc
set tempo
stop
Author
Song: I've Got All This Ringing In My Ears And None On My Fingers
Artist: Fall Out Boy
tabbed by: Valerie L.
e-mail: iloled@yahoo.com

for the rhythm you want staccato type notes. This is my favorite track from the album.  
was really hard to hear the bass line because of the bass trombone and the piano, etc.

G|-----|
D|-----|
A|-1/5-|
E|-----|

G|-----------------------------------------------------------------|
D|-----------------------------------------------------------------|
A|-----------------------------------------------------------------|
E|-44444444444444-2-111111111111111-0000000-22222222-4444444444444-|

Verse:
G|-------------------------------------------------------------------------------|
D|------------------------------------------------------66-----------6-----6-----|
A|----------------------------------------------------6----6-4-----6-----6-----6-|
E|-44444444444444-2-111111111111111-000000-22222222-4---------4--4-----4-----4---|

G|----------------------------------------------------------------|
D|----------------------------------------------------------------|
A|----------------------------------------------------------------|
E|-44444444444444-2-111111111111111-000000-22222222-4444444444444-|

G|------------------------------|
D|-----66------------4-----4----|
A|---6----6-4------4-----4----4-|
E|-4----------4--2-----2----2---|

Chorus
G|-------------------------------------------------|---------------------|
D|----------------------------4-1------------1-----|---------------------|
A|-22222222-------------22222-----2---6-4------2-1-|-66666666------------|
E|----------00-22-33-55-------------4-----4-2------|----------00-22-33-55|

Break:
G|-----------------------------------|---------------------------------------|
D|-----------------------------------|---------------------------------------|
A|--------------------444444444444444|--------------------4~-4~-4~-4-44-44-66|
E|-22222222-4444-2222----------------|-22222222-4444-2222--------------------|

Verse:
G|-------------------------------------------------------------------------------|
D|------------------------------------------------------66-----------6-----6-----|
A|----------------------------------------------------6----6-4-----6-----6-----6-|
E|-44444444444444-2-111111111111111-000000-22222222-4---------4--4-----4-----4---|

G|----------------------------------------------------------------|
D|----------------------------------------------------------------|
A|----------------------------------------------------------------|
E|-44444444444444-2-111111111111111-000000-22222222-4444444444444-|

G|------------------------------|
D|-----66------------4-----4----|
A|---6----6-4------4-----4----4-|
E|-4----------4--2-----2----2---|

Chorus x1

Bridge
G|------------------------------------------------------------------------|
D|------------------------------------------------------------------------|
A|-------------------444444444444--------------------4-44-4-44-44444-44444|
E|-2222222-4444-2222--------------22222222-4444-2222----------------------|

Chorus:
G|-------------------------------------------------|------------------|
D|----------------------------4-1------------1-----|------------------|
A|-22222222-------------22222-----2---6-4------2-1-|-66666666---------|
E|----------00-22-33-55-------------4-----4-2------|----------00000000|

G|----------------------|    |-------------------|
D|----------------------|    |-------------------|
A|-22222222-------------|    |-2222222-2/6-66----|
E|----------00-22-33-55-| x4 |----------------0~-|

The end of the whole album. :D

            
            
Suggest correction
Creating personal tab
Creating personal tab
You can edit any tab online and save it as your Personal.

You can edit, replace or remove any tab part or add personal notes – all changes will be seen only by you.

Personal tabs can be accessed anytime from any device, even offline.
Learn more »
comments
print report bad tab
3 comments total.
0 reply
PunkKid_19 76 Dec 18, 2007 09:35 AM

perfect i give it a five and its great how pete is back to making decent bass lines

0 reply
kelpie94 51 Jan 05, 2008 12:43 PM

decent...funny...

0 reply
flanbass 10 Jan 22, 2014 06:27 PM

well its almost the same as the other tab, just with a lot of numbers, but overall good...

guest
You may want to rate the tab now too:
select rating
Wanna post a correction for this tab? Suggest correction