Oops, an error
Loading. Please wait.

Lullabye tab

version 2
version 2

Whole song

15,253 views 18 this week
3 commentsread comments
1 2 3 4 5
x 12
add to favorites
×
Save as Personal and add changes to this tab that will be seen only by you. Learn more ›
×
You can save this tab as Personal to edit and correct it or add notes. All changes will be seen only by you. Learn more »
launch autoscroll
font size
0
reset
how to read this tab
guitar tuner
edit
Autoscroll
slow
fast
+/-
esc
set tempo
stop
Author
-------------------------------------------------------------------------------
                             LULLABY - Fall Out Boy (Folie à Deux)
-------------------------------------------------------------------------------
Tabbed by: THEGUITARIST620
This is as accrete a tab as there is please enjoy!! All Tabbed by me and my ears!!

Tuning: Standard - (Finger Picking is best.)


[Intro]

  G
e|-------------3------|---------3------|
B|-0--0---0------0----|-0---0-----0----|
G|--------------------|----------------|
D|--------------------|----------------|Play 2nd measure (4 times)
A|--------------------|----------------|
E|--x---3---3---3---3-|---3---3--3--3--|


[Verse 1]

  G                  C                     D               C
e|------------------|---------3-----------|---------0---2-|---------3-----------|
B|-0---0----0---0---|-0---0-------0---0---|-----3---------|-0---0-------0---0---|
G|------------------|---------------------|---------------|---------------------| Play 3 times
D|------------------|---------------------|-------0---0---|---------------------|
A|------------0---2-|---3---3---3---3---3-|-3/5-----------|---3---3---3---3---3-|
E|---3---3----------|---------------------|---------------|---------------------|

  G                  C                     D               C
e|------------------|---------------------|---------0---2-|---------3-----------|
B|-----0--0-0-------|---0---0--0----------|-----3---------|-0---0-------0---0---|
G|------------------|---0---0--0----------|---------------|---------------------| Play Once
D|------------------|---2---2--2----------|-------0---0---|---------------------|
A|------------0-----|---3---3--3----------|-3/5-----------|---3---3---3---3---3-|
E|---3---3-3--------|---------------------|---------------|---------------------|


[Chorus]

(Hand Strum here)

   C  G  D                   C  C  D
e|-3--3--2-2-2-2-2-2-      |-3--3--2------------|
B|-0--0--3-3-3-3-3-3-      |-0--0--3-(Let Ring)-|
G|-0--0--2-2-2-2-2-2- (x3) |-0--0--2------------|  (once)
D|-2--0--0-0-0-0-0-0-      |-2--2--0------------| 
A|-3--2--------------      |-3--3---------------|
E|----3--------------      |--------------------|


[Verse 2]

  G                  C                     D               C
e|------------------|---------3-----------|---------0---2-|---------3-----------|
B|-0---0----0---0---|-0---0-------0---0---|-----3---------|-0---0-------0---0---|
G|------------------|---------------------|---------------|---------------------| Play Twice
D|------------------|---------------------|-------0---0---|---------------------|
A|------------0---2-|---3---3---3---3---3-|-3/5-----------|---3---3---3---3---3-|
E|---3---3----------|---------------------|---------------|---------------------|


[Chorus]

(Hand Strum here)
   C  G  D                   C  C  D
e|-3--3--2-2-2-2-2-2-      |-3--3--2------------|
B|-0--0--3-3-3-3-3-3-      |-0--0--3-(Let Ring)-|
G|-0--0--2-2-2-2-2-2- (x3) |-0--0--2------------|  (once)
D|-2--0--0-0-0-0-0-0-      |-2--2--0------------| 
A|-3--2--------------      |-3--3---------------|
E|----3--------------      |--------------------|


[Final Verse]

  G                  C                     D               C
e|------------------|---------3-----------|---------0---2-|---------3-----------|
B|-0---0----0---0---|-0---0-------0---0---|-----3---------|-0---0-------0---0---|
G|------------------|---------------------|---------------|---------------------| Play Once
D|------------------|---------------------|-------0---0---|---------------------|
A|------------0---2-|---3---3---3---3---3-|-3/5-----------|---3---3---3---3---3-|
E|---3---3----------|---------------------|---------------|---------------------|

  G                  C                     D               G
e|------------------|---------3-----------|---------0---2-|-3-------------------|
B|-0---0----0---0---|-0---0-------0---0---|-----3---------|-0-------------------|
G|------------------|---------------------|---------------|-0--(Let Ring)-------| Play Once
D|------------------|---------------------|-------0---0---|-0-------------------|
A|------------0---2-|---3---3---3---3---3-|-3/5-----------|-2-------------------|
E|---3---3----------|---------------------|---------------|-3-------------------|



Bonus Lyrics!! 
Instructions: Print, Play, Sing, Enjoy!!

Fall Out Boy 
Lullaby


[Verse]

Honey is for bees, silly bear.
Besides, there's jelly beans everywhere.
It's not what it seems
In the land of dreams.
Don't worry your head, 
Just go to sleep.

It doesn't matter
How you feel.
Life is just a ferris wheel.
It's always up and down, 
Don't make a sound.


[Chorus]

When you wake up, 
The world will come around.
When you wake up, 
The world will come around.


[Verse]

It's just the sweet weather
And the peacock feathers.
In the morning, 
It will all be better.
It's not what it seems
In the land of dreams.
Don't worry your head, 
Just go to sleep.


[Chorus]

When you wake up, 
The world will come around.
When you wake up, 
The world will come around.


[Verse]

Honey is for bees, silly bear.
Besides, there's jelly beans everywhere.
It's not what it seems
In the land of dreams.
Don't worry your head, 
Just go to sleep.



************************************

| x  Dead note
| /  Slide up

************************************

            
            
Suggest correction
Creating personal tab
Creating personal tab
You can edit any tab online and save it as your Personal.

You can edit, replace or remove any tab part or add personal notes – all changes will be seen only by you.

Personal tabs can be accessed anytime from any device, even offline.
Learn more »
comments
print report bad tab
3 comments total.
+2 reply
adrianoguitar 145 Jul 30, 2010 06:19 PM

this tab is fantastic! thank you so much.

+1 reply
falling4u365 37 Jul 05, 2011 03:07 PM

Awesome tab. I think it end on G ringing out though. The C makes it sound unfinished and in the song, it sounds like G.

0 reply
THEGUITARIST620 102 Jul 20, 2011 07:39 PM

Thank you both. "falling4u365" I believe you are correct it does sound lik it ends on a G.
I will fix it if I can figure out how! Thanks.

guest
You may want to rate the tab now too:
select rating
Wanna post a correction for this tab? Suggest correction