Oops, an error
Loading. Please wait.

Nobody Puts Baby In The Corner chords

version 2
version 2

Whole song

Interactive

65,068 views 66 this week
8 commentsread comments
1 2 3 4 5
x 20
add to favorites
×
Save as Personal and add changes to this tab that will be seen only by you. Learn more ›
×
You can save this tab as Personal to edit and correct it or add notes. All changes will be seen only by you. Learn more »
launch autoscroll
font size
0
reset
transpose
0
reset
simplify chords
display chords
guitar tuner
edit
Autoscroll
slow
fast
+/-
esc
set tempo
stop
Author
Strumming
There is no strumming pattern for this song yet. and get +5 IQ
-------------------------------------------------------------------------------
                             NOBODY PUTS BABY IN THE CORNER (Acoustic) - Fall Out Boy
-------------------------------------------------------------------------------
Tabbed by: Tyler J
Email: full_metal_orange AT hotmail DOT com

Nobody Puts Baby In The Corner (Acoustic) – Fall Out Boy

Tuning: Standard

This is a fantastic song from Fall Out Boy’s Acoustic EP. Unfortunately every other tab 
terrible so here’s mine. Enjoy!

Chords Used:

C:      - 3 2 0 1 0
Em:     0 2 2 0 0 0
F:      1 3 3 2 1 1
Am:     - 0 2 2 1 0
A7sus4: - 0 2 2 3 3
G:      3 2 0 0 3 3
C/B:    0 2 0 2 1 0


[Verse 1]

C                            Em
Drink down that gin and kerosene
C                          Em   F                  Am
And come spit on bridges with me just to keep us warm
               F            Am
Then light a match to leave me be
        G             A7sus4 F  G  C   
Am
Light a match to leave          me be


[Verse 2]

                   C/B C  C/B Am       C/B C
I keep my jealousy close  cause   it's all mine
C/B Am               C/B  C                          
  G   G
And if you say this makes you happy then I'm not the only one lying


[Chorus]
(2 Times. Second time with chorus riff.)

C
Keep quiet
Am
Nothing comes as easy as you
Em                         F
Can I lay in your bed all day?
              C                        Am
I'll be your best kept secret and your biggest mistake
     Em                            F
The hand behind this pen relives a failure everyday


[Verse 3]

                   C/B C  C/B Am       C/B C
I keep my jealousy close  cause   it's all mine
C/B Am               C/B  C                          
 G     G
And if you say this makes you happy then I'm not the only one lying


[Verse 4]
(Use Verse Riff on the first ‘F’ Chord)

C                            Em
Drink down that gin and kerosene
C                          Em   F                  Am
And come spit on bridges with me just to keep us warm
               F               Am
Then light a match to leave me be
        G             A7sus4 F  G  C   
Am
Light a match to leave          me be


[Chorus]
(2 Times. Second time with chorus riff.)


[Interlude]
(Play Verse Riff while other chords are played)

F   F   Am   F


[Bridge]
(3 Times. Use Bridge Riff Throughout)

F
So wear me like a locket around your throat
Am
I'll weigh you down, I'll watch you choke
F
You look so good in blue
Am
You look so good in blue

[Chorus]
(3 Times. First time strum first C chord and don’t strum until second)

(End On an Am Chord)


[Chorus Riff]

e|----------------------------------|
B|------------------8-8-------------|
G|--0-0-5-5-7-7-5-5-----5-5-7-7-5---|
D|----------------------------------|
A|----------------------------------|
E|----------------------------------|

[Verse Riff]

e|-------------------------------0--|
B|------1---3---1------1---3-3-1----|
G|--2-2---2---2---2--2---2----------|
D|----------------------------------|
A|----------------------------------|
E|----------------------------------|

[Bridge Riff]

e|------------------0-------0-------|
B|--3-1-3-1-3-1-3-1---1-3-1---1-3-1-|
G|----------------------------------|
D|----------------------------------|
A|----------------------------------|
E|----------------------------------|

            
            
Suggest correction
Creating personal tab
Creating personal tab
You can edit any tab online and save it as your Personal.

You can edit, replace or remove any tab part or add personal notes – all changes will be seen only by you.

Personal tabs can be accessed anytime from any device, even offline.
Learn more »
comments
print report bad tab
8 comments total. Showing first comments.
0 reply
marcmmo4 10 Aug 18, 2008 09:57 AM

yo bud heres tht interlude part

|-------------------------------0-|---------------------------------|
|-----1---3p1---1-----1---3p1-----|-----1---3p1---1-----1---3p1---1-|
|-2-2---2-----2---2-2---2-----2---|-2-2---2-----2---2-2---2-----2---|
|---------------------------------|---------------------------------|
|---------------------------------|---------------------------------|
|---------------------------------|---------------------------------|

0 reply
tyler_j 1,519 Aug 19, 2008 03:03 AM

thanks, i'll try that out a bit later...
it looks better too..

0 reply
EpiTelePhone 21 Nov 03, 2008 06:37 AM

Fall out boy have an acoustic cd???

guest
You may want to rate the tab now too:
select rating
Wanna post a correction for this tab? Suggest correction