Oops, an error
Loading. Please wait.

Reinventing The Wheel To Run Myself Over bass

version 2
version 2

Whole song

Interactive

410 views 1 this week
2 commentsread comments
1 2 3 4 5
1 last vote to show rating
add to favorites
×
Save as Personal and add changes to this tab that will be seen only by you. Learn more ›
×
You can save this tab as Personal to edit and correct it or add notes. All changes will be seen only by you. Learn more »
launch autoscroll
font size
0
reset
guitar tuner
edit
Autoscroll
slow
fast
+/-
esc
set tempo
stop
Author
Song - Reinventing the Wheel to Run Myself Over
Artist - Fall Out Boy
Album - Take This To Your Grave
Tabbed by - Daniel Cummins - dan_the_man_no1@hotmail.com

Intro
G|--------------------------------------------------------|
D|--------------------------------------------------------|
A|--------------------------------------------------------|
E|-777555777777999999000000000000777777999999000000000000-|

Verse
G|--------------------------------------------------------------|
D|--------------------------------------------------------------|
A|--------------------------------------------------------------|
E|-777777779999999900000000000000007777777799999999-00-00-00-00-|

G|--------------------------------------------------------------|
D|--------------------------------------------------------------|
A|--------------------------------------------------------------|
E|-777777779999999900000000000000007777777799999999-00-00-00-45-|

Pre-chorus
G|-----------------------------------------------------------------------------------------------|
D|-----------------------------------------------------------------------------------------------|
A|-----------------------------------------------------------------------------------------------|
E|-22222222222222220000000000000000444444444444444400000000000000002222222222222222-0-0-0-0-0000-|

Chorus
G|-----------------------------------------------------------------|
D|-----------------------------------------------------------------|
A|-----------------------------------------------------------------|
E|-7-------9-------0-------444-222-7-------5-------9-------444-222-|

G|-----------------------------------------------------------------|
D|-----------------------------------------------------------------|
A|-----------------------------------------------------------------|
E|-7-------9-------0-------444-222-7-------5-------9-------444-222-|

Next bit
G|------------------------------------------------------------------|
D|------------------------------------------------------------------|
A|------------------------------------------------------------------|
E|-7777777799999999000000000000000077777777999999990000000000000000-|

G|------------------------------------------------------------------|
D|------------------------------------------------------------------|
A|------------------------------------------------------------------|
E|-7777777799999999000000000000000077777777999999990000000000000045-|

Pre Chorus
G|--------------------------------------------------------------------------------------------------|
D|--------------------------------------------------------------------------------------------------|
A|--------------------------------------------------------------------------------------------------|
E|-222222222222222200000000000000004444444444444444000000000000000022222222222222220000000000000000-|

Chorus
G|-----------------------------------------------------------------|
D|-----------------------------------------------------------------|
A|-----------------------------------------------------------------|
E|-7-------9-------0-------444-222-7-------5-------9-------444-222-|

G|-----------------------------------------------------------------|
D|-----------------------------------------------------------------|
A|-----------------------------------------------------------------|
E|-7-------9-------0-------444-222-7-------5-------9-------7775557-|

Bridge (after guitar bit)
G|---------------------------|
D|---------------------------|
A|---------------------------|
E|-7-------9\0~~~~~~~444-222-|

Outro
G|-----------------------------------------------------------------|
D|-----------------------------------------------------------------|
A|-----------------------------------------------------------------|
E|-777777779999999900000000444-222-777777779999999900000000444-222-|

G|---------------------------------------------------------|
D|---------------------------------------------------------|
A|---------------------------------------------------------|
E|-777777779999999900000000444-222-77777777999999990-0-0-0-|

Thats it.
Please rate/comment
Dan

            
            
Suggest correction
Creating personal tab
Creating personal tab
You can edit any tab online and save it as your Personal.

You can edit, replace or remove any tab part or add personal notes – all changes will be seen only by you.

Personal tabs can be accessed anytime from any device, even offline.
Learn more »
Give kudos to tab author, rate the tab!
1 2 3 4 5
comments
print report bad tab
2 comments total.
-1 reply
Delboy_360 10 Oct 25, 2007 04:34 AM

This. Fucking. Sucks. Cock.

+1 reply
Delboy_360 10 Oct 25, 2007 04:34 AM

I said "This. Fucking. Sucks. Cock."

guest
You may want to rate the tab now too:
select rating
Wanna post a correction for this tab? Suggest correction