Oops, an error
Loading. Please wait.

Saturday tab

version 2
version 2

Whole song

Interactive

4,793 views 1 this week
2 commentsread comments
1 2 3 4 5
x 4
add to favorites
×
Save as Personal and add changes to this tab that will be seen only by you. Learn more ›
×
You can save this tab as Personal to edit and correct it or add notes. All changes will be seen only by you. Learn more »
launch autoscroll
font size
0
reset
how to read this tab
guitar tuner
edit
Autoscroll
slow
fast
+/-
esc
set tempo
stop
Author
Difficulty
_____________________________________________________________________________
                            
                           Fall Out Boy - Saturday
_____________________________________________________________________________

Tabbed By: Cundo
Email: facu_2689@comcast.net
Tuning: EADGBe

x-quick stop
~-let ring
.-palm mute
///-pickslide


"I'm good to go..."
e|--------------------------------------------------|
B|--------------------------------------------------|
G|--------------------------------------------------|
D|-6666666666-9999999999-2x22-22x22-111111111111111-|
A|-6666666666-9999999999-2x22-22x22-111111111111111-|
E|-4444444444-7777777777-0x00-00x00-999999999999999-|

e|-------------------------------------------------------|
B|-------------------------------------------------------|
G|-------------------------------------------------------|
D|-2222222222222222-66x88x99x9999-22222222222222222222222|
A|-2222222222222222-66x88x99x9999-22222222222222222222222|
E|-0000000000000000-44x66x77x7777-00000000000000000000000|

"I'm good to go for something golden.."
e|--------------------------|
B|--------------------------|
G|--------------------------|
D|-66666-99999-22222-22222--|x2
A|-66666-99999-22222-22222--|
E|-44444-77777-00000-00000--|
    ....  ....  ....  .... PM

"When I Say.."
e|-------------------------|
B|-------------------------|
G|------------9~-----------|
D|-4-6-11-9~--9~----//////-|
A|-4-6-11-9~--7~---//////--|
E|-2-4--9-7~------//////---|

"Two More Weeks.."
e|-----------------------|
B|-----------------------|
G|-------------6666-8888-|
D|-99999-99999-6666-8888-|x2
A|-99999-99999-4444-6666-|
E|-77777-66666-----------|

"Saturday"
e|-------------------------------|
B|-------------------------------|
G|----------------666666-888888--|
D|-99999x-99999x--666666-888888--|x2
A|-99999x-99999x--444444-666666--|
E|-77777x-66666x-----------------|

"Pete And I.."
e|--------------------|
B|--------------------|
G|--------------------|
D|--------------------|
A|--------------------|
E|-4~~4/6/7--/6~~-0~~-|

"I Read About The Afterlife.."
e|--------------------------|
B|--------------------------|
G|--------------------------|
D|-66666-99999-22222-22222--|x2
A|-66666-99999-22222-22222--|
E|-44444-77777-00000-00000--|
    ....  ....  ....  .... PM

"When I Say.."
e|-------------------------|
B|-------------------------|
G|------------9~-----------|
D|-4-6-11-9~--9~----//////-|
A|-4-6-11-9~--7~---//////--|
E|-2-4--9-7~------//////---|

"Two More Weeks.."
e|-----------------------|
B|-----------------------|
G|-------------6666-8888-|
D|-99999-99999-6666-8888-|x2
A|-99999-99999-4444-6666-|
E|-77777-66666-----------|

"Saturday"
e|-------------------------------|
B|-------------------------------|
G|----------------666666-888888--|
D|-99999x-99999x--666666-888888--|x2
A|-99999x-99999x--444444-666666--|
E|-77777x-66666x-----------------|

Bridge
e|--------------------|
B|-0-7-0-5-4p2p0------|
G|--------------------|
D|--------------------|x4 (this contiues
A|--------------------|    while the other
E|--------------------|    guitar goes)

e|------------------------------|
B|------------------------------|
G|------------------------------|
D|-2~-4~-6~-9-8-9--2~-4~-6~-9x--|  
A|-2~-4~-6~-9-8-9--2~-4~-6~-9x--|
E|-0~-2~-4~-7-6-7--0~-2~-4~-7x--|

"And I Read About The Afterlife.."
e|--------------------------|
B|--------------------------|
G|--------------------------|
D|-22222-44444-66666-99999--|x4 let last chord ring 
A|-22222-44444-66666-99999--|   last time
E|-00000-22222-44444-77777--|


e|--------------------|                e|-----------|
B|--------------------|                B|-----------|
G|--------------------|                G|-6666-8888-|
D|-99999999-99999999--|
                

            
            
Suggest correction
Creating personal tab
Creating personal tab
You can edit any tab online and save it as your Personal.

You can edit, replace or remove any tab part or add personal notes – all changes will be seen only by you.

Personal tabs can be accessed anytime from any device, even offline.
Learn more »
comments
print report bad tab
2 comments total.
0 reply
blackomen9 165 May 09, 2006 04:05 PM

i think for the chorus it goes from c sharp to e not d sharp other then that its awesome

0 reply
deluge_nl 145 Apr 07, 2007 11:55 AM

There are a couple mistakes in it.. I'll post it later on when i have the time for it. Other then that it's a good tab.

guest
You may want to rate the tab now too:
select rating
Wanna post a correction for this tab? Suggest correction