Oops, an error
Loading. Please wait.

Shes My Winona tab

version 2
version 2

Whole song

Interactive

13,801 views 12 this week
1 commentread comment
1 2 3 4 5
x 7
add to favorites
×
Save as Personal and add changes to this tab that will be seen only by you. Learn more ›
×
You can save this tab as Personal to edit and correct it or add notes. All changes will be seen only by you. Learn more »
launch autoscroll
font size
0
reset
how to read this tab
guitar tuner
edit
Autoscroll
slow
fast
+/-
esc
set tempo
stop
Author
Tabbers playing skills
advanced +
Intro-
GtrI

|-2-2-22-2-2-2-22--2-2-2-22-2-2-2-22--|-2-2-22-2-2-2-22--2-2-2-22-2-2-2-22--|
|-3-3-33-3-3-3-33--3-3-3-33-3-3-3-33--|-3-3-33-3-3-3-33--3-3-3-33-3-3-3-33--|
|-4-4-22-0-0-0-00--x-x-x-xx-x-x-x-xx--|-4-4-22-0-0-0-00--x-x-x-xx-x-x-x-xx--|
|------------------4-4-4-44-4-4-4-44--|------------------4-4-4-44-4-4-4-44--|
|-------------------------------------|-------------------------------------|
|-------------------------------------|-------------------------------------|

GtrII
|-------------------------------------|----------------------------|
|-------------------------------------|----------------------------|
|-------------------------------------|---4--44--4--44---4--4-4-4--|
|-------------------------------------|----------------------------|
|-------------------------------------|---2--22--2--22---2--2-2-2--|
|-------------------------------------|----------------------------|


Then-
GtrI
|--------------------------------------------------------------------------|
|--------------------------------------------------------------------------|
|--------------------------------------------------------------------------|
|-5555-4444-2222-7777-0000000000000000--9999-4444-2222-7777-00000000000000-|
|-5555-4444-2222-7777-0000000000000000--9999-4444-2222-7777-00000000000000-|
|-5555-4444-2222-7777-0000000000000000--9999-4444-2222-7777-00000000000000-|

GtrII

|------------------------------------------------------------------------|
|------------------------------------------------------------------------|
|-14141414-14141414-12121212-12121212--11111111111111111111111111111111--|
|------------------------------------------------------------------------|
|-12121212-12121212-10101010-10101010--9-9-9-9-9-9-9-9-9-9-9-9-9-9-9-9---|
|------------------------------------------------------------------------|


|------------------------------------------------------------------------|
|------------------------------------------------------------------------|
|-11111111-9-9-9-9--11111111-11111212--11111111111111111111111111111111--|
|------------------------------------------------------------------------|
|-9-9-9-9--7-7-7-7--9-9-9-9--9-9-1010--9-9-9-9-9-9-9-9-9-9-9-9-9-9-9-9---|
|------------------------------------------------------------------------|
Verse-


GtrI do 2x


|-2-2-22-2-2-2-22--2-2-2-22-2-2-2-22--|-2-2-22-2-2-2-22--2-2-2-22-2-2-2-22--|
|-3-3-33-3-3-3-33--3-3-3-33-3-3-3-33--|-3-3-33-3-3-3-33--3-3-3-33-3-3-3-33--|
|-4-4-22-0-0-0-00--x-x-x-xx-x-x-x-xx--|-4-4-22-0-0-0-00--x-x-x-xx-x-x-x-xx--|
|------------------4-4-4-44-4-4-4-44--|------------------4-4-4-44-4-4-4-44--|
|-------------------------------------|-------------------------------------|
|-------------------------------------|-------------------------------------|

GtrII@0:43
|-------------------------------------|-------------------------------------|
|-------------------------------------|-------------------------------------|
|-------------------------------------|-------------------------------------|
|-----------------------------------7-|------------------------------xx-xx--|
|-2-2------------55-5-55-55-5-55-7h9--|-2-2------------55-5-55-55-5--xx-xx--|
|----44-4-2-2-77----------------------|-----44-4-2-2-77--------------xx-xx--|


Chorus-

GtrI
|--------------------------------------------------------------------------|
|--------------------------------------------------------------------------|
|--------------------------------------------------------------------------|
|-5555-4444-2222-7777-0000000000000000--9999-4444-2222-7777-00000000000000-|
|-5555-4444-2222-7777-0000000000000000--9999-4444-2222-7777-00000000000000-|
|-5555-4444-2222-7777-0000000000000000--9999-4444-2222-7777-00000000000000-|


GtrII

|------------------------------------------------------------------------|
|------------------------------------------------------------------------|
|-14141414-14141414-12121212-12121212--11111111111111111111111111111111--|
|------------------------------------------------------------------------|
|-12121212-12121212-10101010-10101010--9-9-9-9-9-9-9-9-9-9-9-9-9-9-9-9---|
|------------------------------------------------------------------------|


|------------------------------------------------------------------------|
|------------------------------------------------------------------------|
|-11111111-9-9-9-9--11111111-11111212--11111111111111111111111111111111--|
|------------------------------------------------------------------------|
|-9-9-9-9--7-7-7-7--9-9-9-9--9-9-1010--9-9-9-9-9-9-9-9-9-9-9-9-9-9-9-9---|
|------------------------------------------------------------------------|

GtrI
|-------------------------------------------------------------|
|-------------------------------------------------------------|
|-------------------------------------------------------------|
|-22-9999-4444-22222222-9999-4444-2222-7777-0000000000000000--|
|-22-9999-4444-22222222-9999-4444-2222-7777-0000000000000000--|
|-22-9999-4444-22222222-9999-4444-2222-7777-0000000000000000--|
  **                      


GtrII
|------------------------------------------------------------------------------------|
|------------------------------------------------------------------------------------|
|-xx-11111111-9999-77777777-11111111-9999-77777777-11111111-12121212-111111111111111-|
|-xx---------------------------------------------------------------------------------|
|-xx-9-9-9-9--7777-55555555-9-9-9-9--7777-55555555-9-9-9-9--10101010-9-9-9-9-9-9-9-9-|
|-xx---------------------------------------------------------------------------------|

GtrI
              
|------------------------|     |---------------|
|------------------------|     |---------------|
|------------------------|     |-7-7-77-7-77~--|
|-9999-4444-2222-7777-0~-|     |-7-7-77-7-77~--|
|-9999-4444-2222-7777-0~-|     |-5-5-55-5-55~--|
|-9999-4444-2222-7777-0~-|     |---------------|

GtrII
|-----------------------------|
|-----------------------------|
|-11111111-9999-7777-6666-7~--|
|-----------------------------|
|-9-9-9-9--7777-5555-4444-5~--|
|-----------------------------|

Then-
GtrI
|--------------------------------------------------------------------------|
|--------------------------------------------------------------------------|
|--------------------------------------------------------------------------|
|-5555-4444-2222-7777-0000000000000000--9999-4444-2222-7777-00000000000000-|
|-5555-4444-2222-7777-0000000000000000--9999-4444-2222-7777-00000000000000-|
|-5555-4444-2222-7777-0000000000000000--9999-4444-2222-7777-00000000000000-|

GtrII

|-----------------------------------------------------------|
|-----------------------------------------------------------|
|-11111111-9999-7777-9999-11111111111111111111111111111111--|
|-----------------------------------------------------------|
|-9-9-9-9--7777-5555-7777-9-9-9-9-9-9-9-9-9-9-9-9-9-9-9-9---|
|-----------------------------------------------------------|

|-----------------------------------------------------------|
|-----------------------------------------------------------|
|-7777-9999-7777-11/1212--11111111111111111111111111111111--|
|-----------------------------------------------------------|
|-5555-7777-5555-9-/1010--9-9-9-9-9-9-9-9-9-9-9-9-9-9-9-9---|
|-----------------------------------------------------------|

Do verse-

GtrII
|-------------------------------------|-------------------------------------|
|-------------------------------------|-------------------------------------|
|-------------------------------------|-------------------------------------|
|-----------------------------------7-|------------------------------xx-xx--|
|-2-2------------55-5-55-55-5-55-7h9--|-2-2--------------------------xx-xx--|
|----44-4-2-2-77----------------------|-----44-4-2-2-77--------------xx-xx--|


Do chorus-

then Bass only
then Patrick solo vocals... 
Clean Gtr
|--------------------------------------------------------------------------|
|--------------------------------------------------------------------------|
|---------------------7777777777777777----------------------77777777777777-|
|-5555-4444-2222-7777-7777777777777777--9999-4444-2222-7777-77777777777777-|
|-5555-4444-2222-7777-0000000000000000--9999-4444-2222-7777-00000000000000-|
|-5555-4444-2222-7777-0000000000000000--9999-4444-2222-7777-00000000000000-|


then GtrII enters
|--------------------------------------------------------------------------|
|--------------------------------------------------------------------------|
|--------------------------------------------------------------------7-----|
|--------------------------------------9-----------2--------0--------x/----|
|--------------------------------------9-----------2--------0--------5/----|
|--------------------------------------9-----------2--------0--------0/----|


then

GtrI
|-------------------------------------------------------------|
|-------------------------------------------------------------|
|-------------------------------------------------------------|
|----9999-4444-22222222-9999-4444-2222-7777-0000000000000000--|
|----9999-4444-22222222-9999-4444-2222-7777-0000000000000000--|
|----9999-4444-22222222-9999-4444-2222-7777-0000000000000000--|

GtrII
|------------------------------------------------------------------------------------|
|------------------------------------------------------------------------------------|
|-xx-11111111-9999-77777777-11111111-9999-77777777-11111111-12121212-111111111111111-|
|-xx---------------------------------------------------------------------------------|
|-xx-9-9-9-9--7777-55555555-9-9-9-9--7777-55555555-9-9-9-9--10101010-9-9-9-9-9-9-9-9-|
|-xx---------------------------------------------------------------------------------|

then last


GtrI
|------------------------------------------------------------------------|
|------------------------------------------------------------------------|
|------------------------------------------------------------------------|
|--11-11-11-11-6666-44444444-11-11-11-11-6666-4444-9999-2222222222222222-|
|--11-11-11-11-6666-44444444-11-11-11-11-6666-4444-9999-2222222222222222-|
|--11-11-11-11-6666-44444444-11-11-11-11-6666-4444-9999-2222222222222222-|

GtrII
|-------------------------------------------------------------------------------------------|
|-------------------------------------------------------------------------------------------|
|-xx-13131313-11111111-99999999-13131313-11111111-99999999-13131313-14141414-13131313131313-|
|-xx----------------------------------------------------------------------------------------|
|-xx-11111111-9-9-9-9--77777777-11111111-9-9-9-9--77777777-11111111-12121212-11111111111111-|
|-xx----------------------------------------------------------------------------------------|

GtrI
|----------------------------0-0-0-0-0-0-0-0-0-0-0-0-0-0-0-0-|
|----------------------------0-0-0-0-0-0-0-0-0-0-0-0-0-0-0-0-|
|------------------------------------------------------------|
|-11-11-11-11-6666-4444-9999-2~-------2~----------2~---------|
|-11-11-11-11-6666-4444-9999-2~-------2~----------2~---------|
|-11-11-11-11-6666-4444-9999-2~-------2~----------2~---------|


GtrII
|--------------------------------------------|
|--------------------------------------------|
|-13131313-11111111-9999--8888--9~---9~---9~-|
|--------------------------------------------|
|-11111111-9-9-9-9--7777--6666--7~---7~---7~-|
|--------------------------------------------|


            
            
Suggest correction
Creating personal tab
Creating personal tab
You can edit any tab online and save it as your Personal.

You can edit, replace or remove any tab part or add personal notes – all changes will be seen only by you.

Personal tabs can be accessed anytime from any device, even offline.
Learn more »
comments
print report bad tab
1 comment total.
0 reply
kelvinbeyioku 10 Jun 06, 2010 07:50 AM

its in drop d right?

guest
You may want to rate the tab now too:
select rating
Wanna post a correction for this tab? Suggest correction