Oops, an error
Loading. Please wait.

Sophmore Slump Or Comeback Of The Year bass

1,897 views 3 this week
2 commentsread comments
1 2 3 4 5
x 10
add to favorites
×
Save as Personal and add changes to this tab that will be seen only by you. Learn more ›
×
You can save this tab as Personal to edit and correct it or add notes. All changes will be seen only by you. Learn more »
launch autoscroll
font size
0
reset
guitar tuner
edit
Autoscroll
slow
fast
+/-
esc
set tempo
stop
Author
Difficulty
-------------------------------------------------------------------------------
	     SOPHMORE SLUMP OR COMEBACK OF THE YEAR - Fall Out Boy
-------------------------------------------------------------------------------

Tabbed By : James R
e-mail: lacrosse_17_dude@yahoo.com

Tuning:Standard


  |Guitar Intro|

                           x8
G|---------------------------|
D|---------------------------|
A|------------------2-2-2-2--|
E|--4-4-2-0--0-2--2----------|


G|------------------------------------------------------------------|
D|------------------------------------------------------------------|
A|--------------------------------------------------2-2-2-2-2-2-2-2-|
E|--0-0-0-0-0-0-0-0-2-2-2-2-2-2-2-2-4-4-4-4-4-4-4-4-----------------|

G|------------------------------------------------------------------|
D|------------------------------------------------------------------|
A|--------------------------------------------------1-1-1-1-1-1-1-1-|
E|--0-0-0-0-0-0-0-0-2-2-2-2-2-2-2-2-4-4-4-4-4-4-4-4-----------------|


G|------------------------------------------------------------------|
D|------------------------------------------------------------------|
A|--2-2-2-2-2-2-2-2-1-1-1-1-1-1-1-1---------------------------------|
E|----------------------------------0-0-0-0-0-0-0-0-4-4-4-4-0-0-0-0-|

G|--------------------------------------------------------------------|
D|--------------------------------------------------------------------|
A|--2-2-2-2-2-2-2-2-1-1-1-1-1-1-1-1-----------------------------------|
E|----------------------------------r-0-0-0-0-0-0-0-0-4-4-4-4-0-0-0-0-|

                          x8
G|--------------------------|
D|--------------------------|
A|------------------2-2-2-2-|
E|--4-4-2-0--0-2--2---------|

G|-------------------------------------------------------------------------------------|
D|-------------------------------------------------------------------------------------|
A|--------------------------------------------------1-1-1-1-1-1-1-1--------------------|
E|--0-0-0-0-0-0-0-0-2-2-2-2-2-2-2-2-4-4-4-4-4-4-4-4------------------------------------|

G|------------------------------------------------------------------|
D|------------------------------------------------------------------|
A|--2-2-2-2-2-2-2-2-1-1-1-1-1-1-1-1---------------------------------|
E|----------------------------------0-0-0-0-0-0-0-0-4-4-4-4-0-0-0-0-|

G|--------------------------------------------------------------------|
D|--------------------------------------------------------------------|
A|--2-2-2-2-2-2-2-2-1-1-1-1-1-1-1-1-----------------------------------|
E|----------------------------------r-0-0-0-0-0-0-0-0-4-4-4-4-0-0-0-0-|

G|------------------------------------------------------------------|
D|------------------------------------------------------------------|
A|--2-2-2-2-2-2-2-2-1-1-1-1-1-1-1-1---------------------------------|
E|----------------------------------0-0-0-0-0-0-0-0-4-4-4-4-0-0-0-0-|

G|---------------------------------------------------------------------|
D|---------------------------------------------------------------------|
A|--2-2-2-2-2-2-2-2-1-1-1-1-1-1-1-1---------------------------------2~-|
E|----------------------------------0-0-0-0-0-0-0-0-4-4-4-4-0-0-0-0----|


  |PAUSE: GUITAR ONLY|

                                    |-------x6---------|
G|----------------------------------|------------------|
D|----------------------------------|------------------|
A|----------------------------------|--2-2-2-2-2-2-2-2-|
E|--2-2-2-2-2-2-2-2-5-5-5-5-5-5-5-5-|------------------|

G|-------------------------------------|
D|-------------------------------------|
A|----------------------------------2~-|
E|--3-3-3-3-3-3-3-3-5-5-5-5-5-5-5-5----|

G|----------------------------------------------------------------------------------|
D|----------------------------------------------------------------------------------|
A|----------------------------------2-2-2-2-2-2-2-2-1-1-1-1-1-1-1-1-----------------|
E|--0-0-0-0-0-0-0-0-2-2-2-2-2-2-2-2---------------------------------0-0-0-0-0-0-0-0-|

G|---------------------------------------------------------|
D|---------------------------------------------------------|
A|------------------2-2-2-2-2-2-2-2-1-1-1-1-1-1-1-1--------|
E|--4-4-4-4-0-0-0-0---------------------------------r-0~~~-|

|-------------------------|
|-End-End-End-End-End-End-|
|-------------------------|


| r  rest
| /  slide up
| \  slide down
| h  hammer-on
| p  pull-off
| ~  vibrato
| +  harmonic
| x  Mute note
===============================================================================

            
            
Suggest correction
Creating personal tab
Creating personal tab
You can edit any tab online and save it as your Personal.

You can edit, replace or remove any tab part or add personal notes – all changes will be seen only by you.

Personal tabs can be accessed anytime from any device, even offline.
Learn more »
comments
print report bad tab
2 comments total.
-2 reply
drop d bass1 10 Jul 10, 2009 11:57 PM

he didnt even put wich parts were wich, i had a load of trouble trying to learn the parts because they weren't marked, 1 star

0 reply
xXEricXx95 31 Jul 26, 2016 05:43 AM

Don't know which parts are which, need to label chorus, verse 1, bridge, verse 2, solo, etc. And which parts are which

guest
You may want to rate the tab now too:
select rating
Wanna post a correction for this tab? Suggest correction